Song name
# A B C D E F G H I J K L M N O P Q R S T U V W X Y Z

Of Mice And Men - Depths tab

This is my first ever guitar tab i've ever written so if its not perfect do't get all
mad. lol AND this was done by ear because i've yet to see OTHER guitar tabs of this and I
know people are dying to learn this song as bad as I was. I'm not saying that this is 
100% correct but its the way I played it. If you wanna watch my guitar cover ofit on Youtube
then here's a link: http://www.youtube.com/watch?v=OKGpEmN1Dgk

DROP A TUNING

|-----------------------------------------------------------|
|-----------------------------------------------------------|
|-----------------------------------------------------------|   x4
|-1-00-000-1-00-000-1-------00------------------------------|
|-1-00-000-1-00-000-1-------00------------------------------|
|-1-00-000-1-00-000-1-0-1/6-00------------------------------|
    ** ***   ** ***         **

|----------------------------------------------------------------|
|----------------------------------------------------------------|
|----------------------------------------------------------------|
|-----------------------------6----------------------------------| x2
|-----------------------------6----------------------------------|
|1-0000-1-0000-1-0000-1-00000/6----------------------------------|


|----------------------------------------------------------------|
|----------------------------------------------------------------|
|----------------------------------------------------------------|
|------------------------6-5-3-----------------------------------|
|------------------------6-5-3-----------------------------------|
|1-00-00-1-00-00-1-00-00-6-5-3-----------------------------------|


|----------------------------------------------------------------|
|----------------------------------------------------------------|
|----------------------------------------------------------------|
|1-------8-------------------------------------------------------|
|1-------8-------------------------------------------------------|
|1-------8-------------------------------------------------------|

I've put so many things above you
|-----------------------------------------------------------------|
|-----------------------------------------------------------------|
|-----------------------------------------------------------------|
|-----------------------------------------------------------------| x6 or so
|-----------------------------------------------------------------|
|12-00-12-00-15-00-00-12-00-00-10-00-15-00------------------------|

Chorus
|-------------------------------------------------------|
|-------------------------------------------------------|
|-------------------------------------------------------|
|-(00)-(00)----------------------------1/6----00000-----| x2
|-(00)-(00)----------------------------1/6x2-00000------|
|-(00)-(00)--000-000-00000-000-000-000-1/6---00000------|
                                             *****

|------------------------------------------------------------------|
|------------------------------------------------------------------|
|------------------------------------------------------------------|   x2
|5-7-5-8-10-8-----1---0--------------------------------------------|
|5------8---------1---0--------------------------------------------|
|5------8---------1---0--------------------------------------------|


|-----------------------------------------------------------------|
|-----------------------------------------------------------------|
|-----------------------------------------------------------------|
|--------------------------------1-00-----------------------------|
|--------------------------------1-00-----------------------------|
|12-00-12-00-10-00-15-00---------1-00-----------------------------|
                                   **

|----------------------------------------------------------------|
|----------------------------------------------------------------|
|----------------------------------------------------------------|
|1-00-1-00-1-00-1-00---------------------------------------------|
|1-00-1-00-1-00-1-00---------------------------------------------|
|1-00-1-00-1-00-1-00---------------------------------------------|
   **   **   **   **
|-----------------------------------------------------------|
|-----------------------------------------------------------|
|-----------------------------------------------------------|   x4
|-1-00-000-1-00-000-1-------00------------------------------|
|-1-00-000-1-00-000-1-------00------------------------------|
|-1-00-000-1-00-000-1-0-1/6-00-----6/1----------------------|
    ** ***   ** ***         **
|-------------------------------------------------------------------|
|-------------------------------------------------------------------|
|-------------------------------------------------------------------|
|------------------------------------------6---00000----------------| x2
|------------------------------------------6---00000----------------|
|1-0000-1-0000-1-0000-1-00000/6---00000--1/6---00000----------------|
                                              *******

|-------------------------------------------------------------------|
|-------------------------------------------------------------------|
|-------------------------------------------------------------------|
|1-------------1-------------1--------------------------------------|
|1-------------1-------------1--------------------------------------|
|1-------------1-------------1--------------------------------------|

|----------------------------------------------------------------|
|----------------------------------------------------------------|
|----------------------------------------------------------------|
|-(00)-(00)----------------------------1/6----6-5-3-6-5----------| x2
|-(00)-(00)----------------------------1/6x2-6-5-3-6-5-----------|
|-(00)-(00)--000-000-00000-000-000-000-1/6----6-5-3-6-5----------|
Tap to rate this tab
# A B C D E F G H I J K L M N O P Q R S T U V W X Y Z