Song name
# A B C D E F G H I J K L M N O P Q R S T U V W X Y Z

Of Mice And Men - Og Loko tab

O. G. Loko
Of Mice & Men
Tuning: Drop C (CGCFAD)
/ = bend
* = palm mute




Intro/Verse

D|--------------------------------|
A|--------------------------------|
F|--------------------------------|
C|--------------------------------|
G|--777--------777-------33333035-|
C|-----0-3/-0-----0-3/-0----------| x6

D|------|
A|------|
F|-5----|
C|-5----|
G|-3----|
C|------|

D|--------------------------------|
A|--------------------------------|
F|--------------------------------|
C|-000--0-0---000--------00000000-|
G|-000--0-0---000--------00000000-|
C|-000--0-0---000--0-0---00000000-| x2
   ***  * *   ***        ********

D|--------------------------------|
A|--------------------------------|
F|--------------------------------|
C|--------------------------------|
G|--------------------------------|
C|-0000--0-0--0000--0-0--00000000-| x2

D|---------------|         |---------------|
A|---------------|         |---------------|
F|---------------|         |---------------|
C|---------------|         |-10-10-10-10---|
G|-555-----------|         |-8--8--8--8----|
C|----0-1/-0-0---| x4 then |-8--8--8--8----|

Chorus

D|--------------------------------------------------------------------------|
A|--------------------------------------------------------------------------|
F|--------------------------------------------------------------------------|
C|-0000--00--0000--00--8888-88--5555--55--0000-00--0000-00--3333-33-5555-55-|
G|-0000--00--0000--00--8888-88--5555--55--0000-00--0000-00--3333-33-5555-55-|
C|-0000--00--0000--00--8888-88--5555--55--0000-00--0000-00--3333-33-5555-55-|

D|----------------------------------------------------------------------|
A|----------------------------------------------------------------------|
F|----------------------------------------------------------------------|
C|-0000--0000-0-00---0000--0000-0-000--8888-8888-8-88---5555-5555-5-555-|
G|-0000--0000-0-00---0000--0000-0-000--8888-8888-8-88---5555-5555-5-555-|
C|-0000--0000-0-00---0000--0000-0-000--8888-8888-8-88---5555-5555-5-555-| x2
   ****  **** * **   ****  **** * ***  **** **** * **   **** **** * ***

(The rhythm of this part is  1e+a e+a3 + 4e | 1e+a e+a3 + 4e+)



You can figure out the rhythm for the fill stuff



Breakdown

Shhh..


D|-----------------------------------------------------|
A|-----------------------------------------------------|
F|-----------------------------------------------------|
C|-0-0-0-0---0-0-0-0-----0-0-0-0-----0000--0000--0000--|
G|-0-0-0-0---0-0-0-0-----0-0-0-0-----0000--0000--0000--|
C|-0-0-0-0---0-0-0-0-----0-0-0-0-----0000--0000--0000--|
   * * * *   * * * *     * * * *     ****  ****  ****
                                   (These are sextuplets)


D|----------------------------|
A|----------------------------|
F|----------------------------|
C|-0-0-0-0-0------0-0-0-0-----|
G|-0-0-0-0-0------0-0-0-0-----|
C|-0-0-0-0-0--0---0-0-0-0--0--|  all that x4
   * * * * *      * * * *   



Feel free to email me if you have any questions/corrections. 
christiancold@gmail.com

Enjoy!
Tap to rate this tab
# A B C D E F G H I J K L M N O P Q R S T U V W X Y Z