Song name
# A B C D E F G H I J K L M N O P Q R S T U V W X Y Z

Of Mice And Men - When You Cant Sleep At Night tab

-------------------------------------------------------------------------------
                             When You Can't Sleep At Night - Of Mice & Men
-------------------------------------------------------------------------------
Tabbed by:Guitarmano0182

Tuning:DADGBE

 INTRO
e|-----------------------------------------0-----------0----------------|
B|-------------------------------------------0----+12----0--------------|
G|--7/9/7/9/7/4-------7------------------------0------------0-----------|
D|----------------7/9-----5/7/9----|-2~--|------------------------------|
A|---------------------------------|-2~--|------------------------------|
D|---------------------------------|-2~--|------------------------------|
     Optional








Verse/Chrous
e|-3------|-2------|----3~--------------------------------------------------|
B|---5----|---3----|----5~--------------------------------------------------|
G|-----0--|-----2--|----0~--------------------------------------------------|
D|--------|--------|----0~--------------------------------------------------|
A|----------------------0~--------------------------------------------------|
D|----------------------0~--------------------------------------------------|

Very simple Enjoy



************************************

| /   slide up
| \   slide down
| h   hammer-on
| p   pull-off
| ~   vibrato
| +   harmonic
| x   Mute note
| b   Bend
| pb  Pre-bend
| br  Bend release
| pbr Pre-bend release
| brb Bend release bend

************************************
Tap to rate this tab
 
# A B C D E F G H I J K L M N O P Q R S T U V W X Y Z