Song name
# A B C D E F G H I J K L M N O P Q R S T U V W X Y Z

Of Mice And Men - When You Cant Sleep At Night tab

(/) Slide Up (\) Slide Down (h) Hammer On (p) Pull Off (b) Bend (r) Release (n) Natural Harmonic

E|----------------------|--------------|----------------------|--------------|
A|---------------------7|--------------|---------------------7|--------------|
D|-------------7h9-5h7--|--------------|-------------7h9-5h7--|--------------|
G|--7h9-7h9-7-4---7---4-|--------------|--7h9-7h9-7-4---7---4-|--------------|
B|----------------------|0-0-n12--0-n12|----------------------|0-0-n12--0-n12|
E|----------------------|-0------0-0---|----------------------|-0------0-0---|

E|----------|----------|----------|----------|
A|----------|----------|----------|----------|
D|----------|----------|----------|----------|
G|--4----4--|--4----4--|--4----4--|--4----4--|
B|-3--3-3--3|-3--3-3--3|-3--3-3--3|-3--3-3--3|
E|3--3-3--3-|2--2-2--2-|3--3-3--3-|2--2-2--2-|

E|----------------------|--------------|----------------------|--------------|
A|---------------------7|--------------|---------------------7|--------------|
D|-------------7h9-5h7--|--------------|-------------7h9-5h7--|--------------|
G|--7h9-7h9-7-4---7---4-|--------------|--7h9-7h9-7-4---7---4-|--------------|
B|----------------------|0-0-n12--0-n12|----------------------|0-0-n12--0-n12|
E|----------------------|-0------0-0---|----------------------|-0------0-0---|

E|----------|----------|----------|----------|
A|----------|----------|----------|----------|
D|----------|----------|----------|----------|
G|--4----4--|--4----4--|--4----4--|--4----4--|
B|-3--3-3--3|-3--3-3--3|-3--3-3--3|-3--3-3--3|
E|3--3-3--3-|2--2-2--2-|3--3-3--3-|2--2-2--2-|

E|----------------------|--------------|----------------------|--------------|
A|---------------------7|--------------|---------------------7|--------------|
D|-------------7h9-5h7--|--------------|-------------7h9-5h7--|--------------|
G|--7h9-7h9-7-4---7---4-|--------------|--7h9-7h9-7-4---7---4-|--------------|
B|----------------------|0-0-n12--0-n12|----------------------|0-0-n12--0-n12|
E|----------------------|-0------0-0---|----------------------|-0------0-0---|

E|----------|----------|----------|----------|
A|----------|----------|----------|----------|
D|----------|----------|----------|----------|
G|--4----4--|--4----4--|--4----4--|--4----4--|
B|-3--3-3--3|-3--3-3--3|-3--3-3--3|-3--3-3--3|
E|3--3-3--3-|2--2-2--2-|3--3-3--3-|2--2-2--2-|

E|0000000000000000|0000000000000000|0000000000000000|0000000000000000|
A|2222222222222222|3333333333333333|2222222222222222|3333333333333333|
D|2222222222222222|2222222222222222|2222222222222222|2222222222222222|
G|0000000000000000|0000000000000000|0000000000000000|0000000000000000|
B|0000000000000000|1111111111111111|0000000000000000|1111111111111111|
E|0000000000000000|0000000000000000|0000000000000000|0000000000000000|

E|0000000000000000|0000000000000000|0000000000000000|0000000000000000|
A|2222222222222222|3333333333333333|2222222222222222|3333333333333333|
D|2222222222222222|2222222222222222|2222222222222222|2222222222222222|
G|0000000000000000|0000000000000000|0000000000000000|0000000000000000|
B|0000000000000000|1111111111111111|0000000000000000|1111111111111111|
E|0000000000000000|0000000000000000|0000000000000000|0000000000000000|

E|----------|----------|----------|----------|
A|----------|----------|----------|----------|
D|----------|----------|----------|----------|
G|--4----4--|--4----4--|--4----4--|--4----4--|
B|-3--3-3--3|-3--3-3--3|-3--3-3--3|-3--3-3--3|
E|3--3-3--3-|2--2-2--2-|3--3-3--3-|2--2-2--2-|

E|----------------------|--------------|----------------------|--------------|
A|---------------------7|--------------|---------------------7|--------------|
D|-------------7h9-5h7--|--------------|-------------7h9-5h7--|--------------|
G|--7h9-7h9-7-4---7---4-|--------------|--7h9-7h9-7-4---7---4-|--------------|
B|----------------------|0-0-n12--0-n12|----------------------|0-0-n12--0-n12|
E|----------------------|-0------0-0---|----------------------|-0------0-0---|

E|----------------------|--------------|----------------------|
A|---------------------7|--------------|---------------------7|
D|-------------7h9-5h7--|--------------|-------------7h9-5h7--|
G|--7h9-7h9-7-4---7---4-|--------------|--7h9-7h9-7-4---7---4-|
B|----------------------|0-0-n12--0-n12|----------------------|
E|----------------------|-0------0-0---|----------------------|
Tap to rate this tab
# A B C D E F G H I J K L M N O P Q R S T U V W X Y Z