Song name
# A B C D E F G H I J K L M N O P Q R S T U V W X Y Z

Of Mice And Men - Youre Not Alone tab

-------------------------------------------------------------------------------
                             You're Not Alone - Of Mice & Men
-------------------------------------------------------------------------------
Tabbed by: Tristen Jones
E-mail: tristen_bjones@yahoo.com

Really different from their previous album. I like the direction their going. 
Pretty sick song too, looking forward to this album, gonna be rad. I broke it 
down into 4 guitars becuase if you listen to the gutiar with the 'lead' in the 
intro and pre verse he's sliding and the other guitar continues to play the 
chord. ALSO: 4/4 timing. Should be easy to keep up if you just tap the quarter
pulse. Comment corrections and criticism, thanks for stopping by.

Here's my guitar cover if you need any help with timing for the second verse & 
breakdown, etc. 
Cover: https://www.youtube.com/watch?v=0gbGbQHy9Lg

Tuning: Drop A - A E A D G B

Guitar 1 - Left
Guitar 2 - Right


Intro:

Guitar 3: (Comes in on beat 3)
B|-----------------------------------|\
G|-------/6-6-6p5\-------/6-6-6h8\---| \
D|-----------------------------------|  \
A|-----------------------------------|   \
E|-----------------------------------|    \
A|-----------------------------------|     \
                                            | Repeated continuously until the first 'Chorus'. AND Pre-Chorus
Guitar 4:                                   | for every chorus.
B|-----------------------------------|     / 
G|-----------------------------------|    /
D|-----------------------------------|   /
A|-0-0-0-0-0-0-0-0-0-0-0-0-0-0-0-0---|  /
E|-5-5-5-5-5-5-5-5-5-5-5-5-5-5-5-5---| /
A|-----------------------------------|/

Guitar 1 & 2: (listen for timing, apologies.)
B|-------|
G|-------|
D|-------|
A|-------|
E|-0-0-0-|
A|-0-0-0-|
   * * *


First 'Chorus': (Guitar 3 & 4 start to fade)

Guitar 1 & 2:
B|-------------------------------------------------------------------------------|
G|-------------------------------------------------------------------------------|
D|---------------10-10-10-12---------10-10-10-12---------10-10-10-12-5~--5--5----|
A|-------0-0-0-0-10-10-10-12-0-0-0-0-10-10-10-12-0-0-0-0-10-10-10-12-5~---5--5---|
E|-0-0-0-0-0-0-0-8--8--8--10-0-0-0-0-8--8--8--10-0-0-0-0-8--8--8--10-3~----3-----|
A|-0-0-0-0-0-0-0-8--8--8--10-0-0-0-0-8--8--8--10-0-0-0-0-8--8--8--10-3~-3--------|
   * * *
B|-------------------------------------------------------------------------|
G|-------------------------------------------------------------------------|
D|----------10-10-10-12---------10-10-10-12---------10-10-10-12-5~--5--5---|
A|--0-0-0-0-10-10-10-12-0-0-0-0-10-10-10-12-0-0-0-0-10-10-10-12-5~---5--5--|
E|--0-0-0-0-8--8--8--10-0-0-0-0-8--8--8--10-0-0-0-0-8--8--8--10-3~----3----|
A|--0-0-0-0-8--8--8--10-0-0-0-0-8--8--8--10-0-0-0-0-8--8--8--10-3~-3-------|


Verse 1:

Guitar 1 & 2:
B|-----------------------------------------------------------------------------------|
G|-----------------------------------------------------------------------------------|
D|------------------------------------------10-10-10-10-10-10-10-10------------------|
A|------------------------------------------10-10-10-10-10-10-10-10------------------|
E|------------------------------------------8--8--8--8--8--8--8--8-------------------|
A|-0-0-0-0-0--0-0-0-0-0--0-0-0-0-0-12b-12b--8--8--8--8--8--8--8--8--5-5-5-5-5-5-5-5--|
     *   *      *   *      *   *
B|------------------------------------------------------|
G|------------------------------------------------------|
D|-----------------------------10-10-10-10-10-10-10-10--|
A|-----------------------------10-10-10-10-10-10-10-10--|
E|-----------------------------8--8--8--8--8--8--8--8---|
A|-0-0-0-0-0-12b-12b-0-0-0-0-0-8--8--8--8--8--8--8--8---|
     *   *             *   *
B|-----------------------------------------------------------------|
G|-----------------------------------------------------------------|
D|--------------------10-10-10-10-10-10-10-10----------------------|
A|--------------------10-10-10-10-10-10-10-10----------------------|
E|--------------------8--8--8--8--8--8--8--8------------------0-0--|
A|-0-0-0-0-0-12b-12b--8--8--8--8--8--8--8--8--5-5-5-5-5-5-5-5-0-0--| (Guitar split after this)
     *   *                                                    * *
Guitar 1:
B|-------------------------------------------|
G|-------------------------------------------|
D|-------------------------------------------|
A|-------------------------------------------|
E|-0-0-0-0-0-----------------0-0----0-0-0-0--|
A|-0-0-0-0-0-----------------0-0----0-0-0-0--|
   * * * * *                 * *    * * * *
Guitar 2:
B|-------------------------------------------|
G|-------------------------------------------|
D|-------------------------------------------|
A|-------------------------------------------|
E|-0-0-0-0-0-----------------0-0----0-0-0-0--|
A|-0-0-0-0-0---0-0-0-0-0-0-0-0-0----0-0-0-0--|
   * * * * *   * *   *   *   * *    * * * *


Chorus 1:

Guitar 1 & 2:
B|-------------------------------------------------------------------------|
G|-------------------------------------------------------------------------|
D|----------10-10-10-12---------10-10-10-12---------10-10-10-12-5~--5--5---|
A|--0-0-0-0-10-10-10-12-0-0-0-0-10-10-10-12-0-0-0-0-10-10-10-12-5~---5--5--|
E|--0-0-0-0-8--8--8--10-0-0-0-0-8--8--8--10-0-0-0-0-8--8--8--10-3~----3----|
A|--0-0-0-0-8--8--8--10-0-0-0-0-8--8--8--10-0-0-0-0-8--8--8--10-3~-3-------|

B|-------------------------------------------------------------------------|
G|-------------------------------------------------------------------------|
D|----------10-10-10-12---------10-10-10-12---------10-10-10-12-5~--5--5---|
A|--0-0-0-0-10-10-10-12-0-0-0-0-10-10-10-12-0-0-0-0-10-10-10-12-5~---5--5--|
E|--0-0-0-0-8--8--8--10-0-0-0-0-8--8--8--10-0-0-0-0-8--8--8--10-3~----3----|
A|--0-0-0-0-8--8--8--10-0-0-0-0-8--8--8--10-0-0-0-0-8--8--8--10-3~-3-------|

B|-------------5+----|
G|--------------5+---|
D|---------------5+--|
A|-0~-------------5+-|
E|-0~----------------|
A|-0~----------------|


Verse 2:

Guitar 1 & 2
B|----------------------------------------------------------------------|\
G|----------------------------------------------------------------------| \
D|------------------------------------------10-10-10-10-10-10-10-10-----|  \
A|------------------------------------------10-10-10-10-10-10-10-10-----|   \
E|-0-0--0-0--0-0--0-0--0-0--0-0-0--0-0--0-0-8--8--8--8--8--8--8--8------|    \
A|-0-0--0-0--0-0--0-0--0-0--0-0-0--0-0--0-0-8--8--8--8--8--8--8--8------|     \
   * *  * *  * *  * *  * *  * * *  * *  * *                                    | x2
B|----------------------------------------------------------------------|     /
G|----------------------------------------------------------------------|    /
D|------------------------------10-10-10-10-10-10-10-10-----------------|   /
A|------------------------------10-10-10-10-10-10-10-10-----------------|  /
E|-0-0--0-0--0-0--0-0--0-0--0-0-8--8--8--8--8--8--8--8------------------| /
A|-0-0--0-0--0-0--0-0--0-0--0-0-8--8--8--8--8--8--8--8-5-5-5-5-5-5-5-5--|/
   * *  * *  * *  * *  * *  * *


Chorus 2:

Guitar 1 & 2:
B|-------------------------------------------------------------------------------|
G|-------------------------------------------------------------------------------|
D|---------------10-10-10-12---------10-10-10-12---------10-10-10-12-5~--5--5----|
A|-------0-0-0-0-10-10-10-12-0-0-0-0-10-10-10-12-0-0-0-0-10-10-10-12-5~---5--5---|
E|-0-0-0-0-0-0-0-8--8--8--10-0-0-0-0-8--8--8--10-0-0-0-0-8--8--8--10-3~----3-----|
A|-0-0-0-0-0-0-0-8--8--8--10-0-0-0-0-8--8--8--10-0-0-0-0-8--8--8--10-3~-3--------|
   * * *
B|-------------------------------------------------------------------------|
G|-------------------------------------------------------------------------|
D|----------10-10-10-12---------10-10-10-12---------10-10-10-12-5~--5--5---|
A|--0-0-0-0-10-10-10-12-0-0-0-0-10-10-10-12-0-0-0-0-10-10-10-12-5~---5--5--|
E|--0-0-0-0-8--8--8--10-0-0-0-0-8--8--8--10-0-0-0-0-8--8--8--10-3~----3----|
A|--0-0-0-0-8--8--8--10-0-0-0-0-8--8--8--10-0-0-0-0-8--8--8--10-3~-3-------|


Bridge:

Guitars 1 & 2:
B|-----------------------------|
G|-----------------------------|
D|-------5~----7~----10~--12~--|
A|-0~----5~----7~----10~--12~--|
E|-0~----3~----5~----8~---10~--|
A|-0~----3~----5~----8~---10~--| x2


Breakdown:

Guitar 1:        |Guitar 1 & 2:
B|---------------|--------------------------------------|
G|---------------|--------------------------------------|
D|---------------|--------------------------------------|
A|---------------|--------------------------------------|
E|-0-0--0-0--0-0-|-0-0--0-0--0-0-0--0-0--0-0------------|
A|-0-0--0-0--0-0-|-0-0--0-0--0-0-0--0-0--0-0--0-0--0-0--|
   * *  * *  * *   * *  * *  * * *  * *  * *  *    *    
B|------------------------------------------------------|
G|------------------------------------------------------|
D|------------------------------------------------------|
A|------------------------------------------------------|
E|-0--0-0--0-0--0-0--0-0--0-0-0--0-0--0-0--0-0-0-0------|
A|-0--0-0--0-0--0-0--0-0--0-0-0--0-0--0-0--0-0-0-0-0----|
   *  * *  * *  * *  * *  * * *  * *  * *  * * * *
B|------------------------------------------------------|
G|------------------------------------------------------|
D|------------------------------------------------------|
A|------------------------------------------------------|
E|-0-0--0-0--0-0-0--0-0--0-0----------------------------|
A|-0-0--0-0--0-0-0--0-0--0-0--0-0--0-0------------------|
   * *  * *  * * *  * *  * *  *    *
B|------------------------------------------------------|
G|------------------------------------------------------|
D|------------------------------------------------------|
A|------------------------------------------------------|
E|-0--0-0--0-0--0-0--0-0--0-0-0--0-0--0-0--0-0-0-0-0----|
A|-0--0-0--0-0--0-0--0-0--0-0-0--0-0--0-0--0-0-0-0-0----|
   *  * *  * *  * *  * *  * * *  * *  * *  * * * * *


Final Chorus:

Guitar 1 & 2:
B|-------------------------------------------------------------------------------|
G|-------------------------------------------------------------------------------|
D|---------------10-10-10-12---------10-10-10-12---------10-10-10-12-5~--5--5----|
A|-------0-0-0-0-10-10-10-12-0-0-0-0-10-10-10-12-0-0-0-0-10-10-10-12-5~---5--5---|
E|-0-0-0-0-0-0-0-8--8--8--10-0-0-0-0-8--8--8--10-0-0-0-0-8--8--8--10-3~----3-----|
A|-0-0-0-0-0-0-0-8--8--8--10-0-0-0-0-8--8--8--10-0-0-0-0-8--8--8--10-3~-3--------|
   * * *
B|-------------------------------------------------------------------------|
G|-------------------------------------------------------------------------|
D|----------10-10-10-12---------10-10-10-12---------10-10-10-12-5~--5--5---|
A|--0-0-0-0-10-10-10-12-0-0-0-0-10-10-10-12-0-0-0-0-10-10-10-12-5~---5--5--|
E|--0-0-0-0-8--8--8--10-0-0-0-0-8--8--8--10-0-0-0-0-8--8--8--10-3~----3----|
A|--0-0-0-0-8--8--8--10-0-0-0-0-8--8--8--10-0-0-0-0-8--8--8--10-3~-3-------|

B|-------------------------------------------------------------------------|
G|-------------------------------------------------------------------------|
D|----------10-10-10-12---------10-10-10-12---------10-10-10-12-5~--5--5---|
A|--0-0-0-0-10-10-10-12-0-0-0-0-10-10-10-12-0-0-0-0-10-10-10-12-5~---5--5--|
E|--0-0-0-0-8--8--8--10-0-0-0-0-8--8--8--10-0-0-0-0-8--8--8--10-3~----3----|
A|--0-0-0-0-8--8--8--10-0-0-0-0-8--8--8--10-0-0-0-0-8--8--8--10-3~-3-------|

B|-------------------------------------------------------------------------|
G|-------------------------------------------------------------------------|
D|----------10-10-10-12---------10-10-10-12---------10-10-10-12-5~--5--5---|
A|--0-0-0-0-10-10-10-12-0-0-0-0-10-10-10-12-0-0-0-0-10-10-10-12-5~---5--5--|
E|--0-0-0-0-8--8--8--10-0-0-0-0-8--8--8--10-0-0-0-0-8--8--8--10-3~----3----|
A|--0-0-0-0-8--8--8--10-0-0-0-0-8--8--8--10-0-0-0-0-8--8--8--10-3~-3-------|

End on:
B|----|
G|----|
D|----|
A|-0~-|
E|-0~-|
A|-0~-|

************************************

| *   palm mute
| /   slide up
| \   slide down
| h   hammer-on
| p   pull-off
| ~   let ring
| +   harmonic
| x   Mute note
| b   Bend
| pb  Pre-bend
| br  Bend release
| pbr Pre-bend release
| brb Bend release bend

************************************
Tap to rate this tab
# A B C D E F G H I J K L M N O P Q R S T U V W X Y Z