Song name
# A B C D E F G H I J K L M N O P Q R S T U V W X Y Z

Of Mice And Men - Youre Not Alone tab

Follow me: @Ludopata7x
Intro: Riffs

e|------------------------------------------------------|
A|------------------------------------------------------|
D|--77777\101010-9--7777\101010-12----------------------|X4
G|------------------------------------------------------|
B|------------------------------------------------------|
C|------------------------------------------------------|

Intro: Chords

e|-------------------|-----------------------------|
A|-------------------|-----------------------------|
D|-------------------|-----------------------------|
G|--7----10----12--X3|--7----12--9-10-9-7----------|X2
B|--7X4--10X3--12--X3|--7X2--12--------------------|X2
C|--7----10----12--X3|--7----12--------------------|X2

When your reflection in the mirror...

e|-----------|------------------|------------------|--------------------|
A|-----------|------------------|------------------|--------------------|
D|-----------|------------------|------------------|--------------------|
G|--7----7---|--7----10----12---|--7----10----12---|--7----7---X2-------|
B|--7X3--7X3-|--7X5--10X4--12X4-|--7X8--10X4--12X4-|--7X2--7X5-X2-------|
C|--7----7---|--7----10----12---|--7----10----12---|--7----7---X2-------|

Interlude: Riff

e|----------------------------------|
A|----------------------------------|
D|--77777\101010-9------------------|
G|----------------------------------|
B|----------------------------------|
C|----------------------------------|

Refrain: Chords

e|-------------------|-------------------------------|
A|-------------------|-------------------------------|
D|-------------------|-------------------------------|
G|--7----10----12--X3|--7----12--9-10-9-7--7~--------|X2
B|--7X4--10X3--12--X3|--7X2--12------------7~--------|X2
C|--7----10----12--X3|--7----12------------7~--------|X2

When it feels like all is lost...

e|---------------------------|
A|---------------------------|
D|---------------------------|
G|--7-----10----12-----------|
B|--7X15--10X4--12X4---------|X2
C|--7-----10----12-----------|

Interlude: Riffs

e|------------------------------------------------------|
A|------------------------------------------------------|
D|--77777\101010-9--7777\101010-12----------------------|
G|------------------------------------------------------|
B|------------------------------------------------------|
C|------------------------------------------------------|

Refrain: Chords

e|-------------------|-----------------------------|
A|-------------------|-----------------------------|
D|-------------------|-----------------------------|
G|--7----10----12--X3|--7----12--9-10-9-7----------|X2
B|--7X4--10X3--12--X3|--7X2--12--------------------|X2
C|--7----10----12--X3|--7----12--------------------|X2

At the end of the day...

e|----------------|-------------------------------|
A|----------------|-------------------------------|
D|----------------|-------------------------------|
G|--7--5--3--5--X2|--7-----5h7--5h7--X4-----------|
B|--7--5--3--5--X2|--7X10--5h7--5h7--X4-----------|
C|--7--5--3--5--X2|--7-----5h7--5h7--X4-----------|

Interlude: Riffs

e|------------------------------------------------------|
A|------------------------------------------------------|
D|--77777\101010-9--7777\101010-12----------------------|X2
G|------------------------------------------------------|
B|------------------------------------------------------|
C|------------------------------------------------------|

Refrain: Chords

e|-------------------|-------------------------------|
A|-------------------|-------------------------------|
D|-------------------|-------------------------------|
G|--7----10----12--X3|--7----12--9-10-9-7--7~--------|X4
B|--7X4--10X3--12--X3|--7X2--12------------7~--------|X4
C|--7----10----12--X3|--7----12------------7~--------|X4
Tap to rate this tab
 
# A B C D E F G H I J K L M N O P Q R S T U V W X Y Z