Song name
# A B C D E F G H I J K L M N O P Q R S T U V W X Y Z

Of Mice And Men - My Understandings tab

Drop C.

Intro = 

D|------------12*-----------------------|
A|---------------12*--------------------|
F|--------------------------------------|
C|--------------------------------------|
G|--------------------------------------|
C|--------------------------------------|

D|------------10h12p10------------------|
A|--------------------12----------------|
F|--------------------------------------|
C|--------------------------------------|
G|--------------------------------------|
C|--------------------------------------|

Verse = 

A|---------------------------------------------------------------------|
F|------------0--------------------------------------------------------|
C|---------4-----4-------------------12--------12/14-------------------|
G|-----2--------------------------10----10-----10/12-------------------|
C|--2-------------------------10---------------10/12-------------------|
D|---------------------------------------------------------------------|

D|---------------------------------------------------------------------|
A|---------------------------------------------------------------------|
F|---------------0-----------------------------------------------------|
C|------------7-----7-----------9--------------------------------------|
G|---------5-----------------7-----7-----------------------------------|
C|------5-----------------7------------------3----2--------------------|
      
D|---------------------------------------------------------------------|
A|---------------------------------------------------------------------|
F|---------------------------------------------------------------------|
C|----4-------12--------7------9-----6---------------------------------|
G|----2(x8)---10(x8)----5(x8)--7(x4)-4(x4)-----------------------------|
C|----2-------10--------5------7-----4---------------------------------|

Chorus = 

D|---------------------------------------------------------------------|
A|---------------------------------------------------------------------|
F|---------------------------------------------------------------------|
C|----4-------12--------7------9-----6---------------------------------|
G|----2(x8)---10(x8)----5(x8)--7(x4)-4(x4)-----------------------------|
C|----2-------10--------5------7-----4---------------------------------|

Outro =

A|------------------------------|
F|------------0-----------------|
C|---------4-----4--------------|
G|-----2------------------------|
A|--2---------------------------|
D|------------------------------|
Tap to rate this tab
# A B C D E F G H I J K L M N O P Q R S T U V W X Y Z