Song name
# A B C D E F G H I J K L M N O P Q R S T U V W X Y Z

Of Monsters And Men - Yellow Light tab

Just a slight alteration to the other tabs, the Gmaj7/B can be played in either of 
the following (equivalent) ways;

  Gmaj7/B    Bm   D   F#m
e|--2---2--|-2----2----2-----|
B|--3---0--|-3----3----2-----|
G|--4---0--|-4----2----2-----|
D|--5---0--|-4----0----4-----|
A|--2---2--|-2---------4-----|
E|---------|-----------2-----|


Gmaj7/B                    Bm           D                           F#m           
I'm looking for a place to start, but everything feels so different now.

Gmaj7/B                Bm                D               F#m 
Just grab a hold of my hand, I will lead you through this wonderland.

Gmaj7/B          Bm          D                  F#m 
Water up to my knees , but sharks are swimming in the sea.

Gmaj7/B               Bm                D         F#m
Just follow my yellow light, and ignore all those big warning signs.


e|------------------------------------------------------------------------|
B|---------3--------3-------3-------3--------3-------2-------2--------3---|
G|-----4-------4--------4-------4-------2-------2--------2-------2--------|
D|---5---5---5---5--------------------0---0---0---0-----------------------|
A|--------------------2---2---2---2---------------------------------------|
E|------------------------------------------------------2---2---2---2-----|

The picking pattern is played through the rest of the song. 
Tap to rate this tab
 
# A B C D E F G H I J K L M N O P Q R S T U V W X Y Z