Song name
# A B C D E F G H I J K L M N O P Q R S T U V W X Y Z

Of Monsters And Men - Little Talks Acoustic tab

-------------------------------------------------------------------------------
 Of Monsters & Men - Little Talks
-------------------------------------------------------------------------------
Tabbed by: ChrisRGuitar
E-mail: chrisrguitar@gmail.com
This is a fingerstyle tab version of Of Monsters & Men's "Little Talks". If you want to
hear how the tab sounds you can go to
http://www.youtube.com/watch?v=uXrBePwOJQg&feature=share&list=UU51oWasgeqk7rdaZd1y4c2Q 
to see a video performance of this version of the song.

I have created nearly 100 other similar fingerstyle arrangements of songs like this,
that you can email me at the address above to receive them free of charge. :)
Good luck & I hope you enjoy!

Tuning: Standard

1        1   &   2   &   3   &   4   &    1   &   2   &   3   &   4   &
e|----|--0---0---0-------0-----------0--|-----------------3---------------|
B|--1-|--------------1---------1--------|---------------------------------|
G|----|---------------------------------|---------------------------------|
D|----|----------2---------------3------|---------2---------------0-------|
A|----|--0------------------------------|-3-------------------------------|
E|----|------------------1--------------|-----------------3---------------|

4   1   &   2   &   3   &   4   &    1   &   2   &   3   &   4   &
e|--0---0---0-------0--------------|---------------------------------|
B|--------------1---------3-----1--|-----------------0-----1-----3---|
G|---------------------------------|---------------------------------|
D|----------2---------------3------|---------2---------------0-------|
A|--0------------------------------|-3-------------------------------|
E|------------------1--------------|-----------------3---------------|

6   1   &   2   &   3   &   4   &    1   &   2   &   3   &   4   &
e|--0---0---0-------0-----------0--|-----------------3---------------|
B|--------------1---------1--------|---------------------------------|
G|---------------------------------|---------------------------------|
D|----------2---------------3------|---------2---------------0-------|
A|--0------------------------------|-3-------------------------------|
E|------------------1--------------|-----------------3---------------|

8   1   &   2   &   3   &   4   &    1   &   2   &   3   &   4   &
e|--0---0---0-------0--------------|---------------------------------|
B|--------------1---------3-----1--|-----------------0---------------|
G|---------------------------------|---------------------------------|
D|----------2---------------3------|---------2---------------0-------|
A|--0------------------------------|-3-------------------------------|
E|------------------1--------------|-----------------3---------------|

10  1   &   2   &   3   &   4   &    1   &   2   &   3   &   4   &
e|--0---0---0-------0-0-0----------|-------------0-------------------|
B|------------------------3---1---1|-----1---3-----3-------------1---|
G|---------------------------------|---------------------------------|
D|----------2---------------3------|---------2---------------2-------|
A|--0------------------------------|-3---------------3---------------|
E|------------------1--------------|---------------------------------|

12  1   &   2   &   3   &   4   &    1   &   2   &   3   &   4   &
e|--0---0---0---0---1--------------|---------------------------------|
B|----------------------1-1---1---1|-----------------------------1---|
G|---------------------------------|---------------------------------|
D|----------2---------------3------|---------2---------------2-------|
A|--0------------------------------|-3---------------3---------------|
E|------------------1--------------|---------------------------------|

14  1   &   2   &   3   &   4   &    1   &   2   &   3   &   4   &
e|--0-------0-------0---0---------0|---------0---0-------------------|
B|------------------------3---1----|-----1---------3---------1---1---|
G|---------------------------------|---------------------------------|
D|----------2---------------3------|---------2---------------2-------|
A|--0------------------------------|-3---------------3---------------|
E|------------------1--------------|---------------------------------|

16  1   &   2   &   3   &   4   &    1   &   2   &   3   &   4   &
e|--0-------0-0---1----------------|---------------------------------|
B|----------------------1-1-----1-1|-----------------------------1---|
G|---------------------------------|---------------------------------|
D|----------2---------------3------|---------2---------------2-------|
A|--0------------------------------|-3---------------3---------------|
E|------------------1--------------|---------------------------------|

18  1   &   2   &   3   &   4   &    1   &   2   &   3   &   4   &
e|--0-------0-------0---0----------|-----0-----0---------------------|
B|------------------------3---1----|-----------------3-----------1---|
G|---------------------------------|---------------------------------|
D|----------2---------------3------|---------2---------------2-------|
A|--0------------------------------|-3---------------3---------------|
E|------------------1--------------|---------------------------------|

20  1   &   2   &   3   &   4   &    1   &   2   &   3   &   4   &
e|--0---0---0---0---1--------------|-------------------------0---3---|
B|----------------------1-1-----1--|---------------------1-----------|
G|---------------------------------|---------------------------------|
D|----------2---------------3------|---------2---------------2-------|
A|--0------------------------------|-3---------------3---------------|
E|------------------1--------------|---------------------------------|

22  1   &   2   &   3   &   4   &    1   &   2   &   3   &   4   &
e|--5-------5-------3-0---3--------|-----3-----3---------------------|
B|---------------------------------|-----------------3---3-3---------|
G|---------------------------------|---------------------------------|
D|----------2---------------3------|---------2---------------0-------|
A|--0------------------------------|-3-------------------------------|
E|------------------1--------------|-----------------3---------------|

24  1   &   2   &   3   &   4   &    1   &   2   &   3   &   4   &
e|--0-------0----------------------|---------------------------------|
B|------------------3-----1-----1--|-------------------------1---1---|
G|---------------------------------|---------------------------------|
D|----------2---------------3------|---------2---------------2-------|
A|--0------------------------------|-3----------------3--------------|
E|------------------1--------------|---------------------------------|

26  1   &   2   &   3   &   4   &    1   &   2   &   3   &   4   &
e|--0-------0-------0---0----------|-----------0---------------------|
B|------------------------3---1----|-----1---3-----3------------1----|
G|---------------------------------|---------------------------------|
D|----------2---------------3------|---------2---------------2-------|
A|--0------------------------------|-3---------------3---------------|
E|------------------1--------------|---------------------------------|

28  1   &   2   &   3   &   4   &    1   &   2   &   3   &   4   &
e|--0---0---0---0---1--------------|---------------------------------|
B|----------------------1---1-1---1|---------------------------------|
G|---------------------------------|---------------------------------|
D|----------2---------------3------|---------2---------------2-------|
A|--0------------------------------|-3---------------3---------------|
E|------------------1--------------|---------------------------------|

30  1   &   2   &   3   &   4   &    1   &   2   &   3   &   4   &
e|--0---0-------0---0--------------|-------------0-------------------|
B|----------4-------------3-----1--|-1---1---3-----------3-------1---|
G|---------------------------------|---------------------------------|
D|----------2---------------3------|---------2---------------2-------|
A|--0------------------------------|-3---------------3---------------|
E|------------------1--------------|---------------------------------|

32  1   &   2   &   3   &   4   &    1   &   2   &   3   &   4   &
e|--0---0---0---0---1--------------|---------------------------0-----|
B|----------------------1-1---1---1|-----1---1---1---3---3---3-----3-|
G|---------------------------------|---------------------------------|
D|----------2---------------3------|---------2---------------2-------|
A|--0------------------------------|-3---------------3---------------|
E|------------------1--------------|---------------------------------|

34  1   &   2   &   3   &   4   &    1   &   2   &   3   &   4   &
e|--0-------0-------0-0------------|-----------0---------------------|
B|------------------------3---1---1|-----1---3-----3-------------1---|
G|---------------------------------|---------------------------------|
D|----------2---------------3------|---------2---------------2-------|
A|--0------------------------------|-3---------------3---------------|
E|------------------1--------------|---------------------------------|

36  1   &   2   &   3   &   4   &    1   &   2   &   3   &   4   &
e|--0---0---0---0---1--------------|-------------------------0---3---|
B|----------------------1-1---1---1|---------------------1-----------|
G|---------------------------------|---------------------------------|
D|----------2---------------3------|---------2---------------2-------|
A|--0------------------------------|-3---------------3---------------|
E|------------------1--------------|---------------------------------|

38  1   &   2   &   3   &   4   &    1   &   2   &   3   &   4   &
e|--5-------5-------3-0---3--------|-----3-----3---------------------|
B|---------------------------------|-----------------3---3-3---------|
G|---------------------------------|---------------------------------|
D|----------2---------------3------|---------2---------------0-------|
A|--0------------------------------|-3-------------------------------|
E|------------------1--------------|-----------------3---------------|

40  1   &   2   &   3   &   4   &    1   &   2   &   3   &   4   &
e|--0-------0----------------------|---------------------------------|
B|------------------3-----1-----1--|-----------------------------1---|
G|---------------------------------|---------------------------------|
D|----------2---------------3------|---------2---------------2-------|
A|--0------------------------------|-3----------------3--------------|
E|------------------1--------------|---------------------------------|

42  1   &   2   &   3   &   4   &    1   &   2   &   3   &   4   &
e|--0---0---0-------0-----------0--|-----------------3---------------|
B|--------------1---------1--------|---------------------------------|
G|---------------------------------|---------------------------------|
D|----------2---------------3------|---------2---------------0-------|
A|--0------------------------------|-3-------------------------------|
E|------------------1--------------|-----------------3---------------|

44  1   &   2   &   3   &   4   &    1   &   2   &   3   &   4   &
e|--0---0---0-------0--------------|-------------------------0---3---|
B|--------------1---------3-----1--|---------------------------------|
G|---------------------------------|---------------------------------|
D|----------2---------------3------|---------2---------------2-------|
A|--0------------------------------|-3---------------3---------------|
E|------------------1--------------|---------------------------------|

46  1   &   2   &   3   &   4   &    1   &   2   &   3   &   4   &
e|--5-------5-------3-0---3--------|-----3-----3---------------------|
B|---------------------------------|-----------------3---3-3---------|
G|---------------------------------|---------------------------------|
D|----------2---------------3------|---------2---------------0-------|
A|--0------------------------------|-3-------------------------------|
E|------------------1--------------|-----------------3---------------|

48  1   &   2   &   3   &   4   &    1   &   2   &   3   &   4   &
e|--0-------0----------------------|---------------------------------|
B|------------------3-----1-----1--|---------------------------------|
G|---------------------------------|---------------------------------|
D|----------2---------------3------|---------2---------------0-------|
A|--0------------------------------|-3-------------------------------|
E|------------------1--------------|------------------3--------------|

50  1   &   2   &   3   &   4   &    1   &   2   &   3   &   4   &
e|--0-------0-------0---0----------|-------------0-------------------|
B|------------------------3-----1--|-1---1---3-----3-----------------|
G|---------------------------------|---------------------------------|
D|---------------------------------|---------------------------------|
A|--0------------------------------|---------------------------------|
E|---------------------------------|---------------------------------|

52  1   &   2   &   3   &   4   &    1   &   2   &   3   &   4   &
e|--0---0---0---0---1--------------|---------------------------------|
B|----------------------1-1-----1-1|-------------------------1---1---|
G|---------------------------------|---------------------------------|
D|---------------------------------|---------------------------------|
A|---------------------------------|---------------------------------|
E|---------------------------------|---------------------------------|

54  1   &   2   &   3   &   4   &    1   &   2   &   3   &   4   &
e|--0-------0-------0---0----------|-------------0-------------------|
B|------------------------3-----1--|-1---1---3-----3-----------------|
G|---------------------------------|---------------------------------|
D|---------------------------------|---------------------------------|
A|--0------------------------------|---------------------------------|
E|---------------------------------|---------------------------------|

56  1   &   2   &   3   &   4   &    1   &   2   &   3   &   4   &
e|--0---0---0---0---1--------------|---------------------------------|
B|----------------------1-1-----1--|-1---------------------------1---|
G|---------------------------------|---------------------------------|
D|---------------------------------|---------------------------------|
A|---------------------------------|---------------------------------|
E|---------------------------------|---------------------------------|

58  1   &   2   &   3   &   4   &    1   &   2   &   3   &   4   &
e|--0-------0-------0--------------|---------0---0-------------------|
B|------------------------3-----1--|-----1---------3------------1----|
G|---------------------------------|---------------------------------|
D|----------2---------------3------|---------2---------------2-------|
A|--0------------------------------|-3---------------3---------------|
E|------------------1--------------|---------------------------------|

60  1   &   2   &   3   &   4   &    1   &   2   &   3   &   4   &
e|--0---0---0---0---1-----3-----1--|-0-------------------------------|
B|---------------------------------|-----------------------------1---|
G|---------------------------------|---------------------------------|
D|----------2---------------3------|---------2---------------2-------|
A|--0------------------------------|-3---------------3---------------|
E|------------------1--------------|---------------------------------|

62  1   &   2   &   3   &   4   &    1   &   2   &   3   &   4   &
e|--0---0---0-------0-----------0--|---------3-----------------------|
B|--------------1---------1--------|-----------------------------1---|
G|---------------------------------|---------------------------------|
D|----------2---------------3------|---------2---------------0-------|
A|--0------------------------------|-3-------------------------------|
E|------------------1--------------|-----------------3---------------|

64  1   &   2   &   3   &   4   &    1   &   2   &   3   &   4   &
e|--0-------0-------0--------------|---------3---------------0---3---|
B|------------------------1-----3--|---------------------------------|
G|---------------------------------|---------------------------------|
D|----------2---------------3------|---------2---------------0-------|
A|--0------------------------------|-3-------------------------------|
E|------------------1--------------|-----------------3---------------|

66  1   &   2   &   3   &   4   &    1   &   2   &   3   &   4   &
e|--5-------5-------3-0---3--------|-----3-----3---------------------|
B|---------------------------------|-----------------3---3-3---------|
G|---------------------------------|---------------------------------|
D|----------2---------------3------|---------2---------------0-------|
A|--0------------------------------|-3-------------------------------|
E|------------------1--------------|-----------------3---------------|

68  1   &   2   &   3   &   4   &    1   &   2   &   3   &   4   &
e|--0-------0----------------------|---------------------------------|
B|------------------3-----1-----1--|-----------------------------1---|
G|---------------------------------|---------------------------------|
D|----------2---------------3------|---------2---------------0-------|
A|--0------------------------------|-3-------------------------------|
E|------------------1--------------|-----------------3---------------|

70  1   &   2   &   3   &   4   &    1   &   2   &   3   &   4   &
e|--0---0---0-------0-----------0--|-----------------3---------------|
B|--------------1---------1--------|-----------------------------1---|
G|---------------------------------|---------------------------------|
D|----------2---------------3------|---------2---------------0-------|
A|--0------------------------------|-3-------------------------------|
E|------------------1--------------|-----------------3---------------|

72  1   &   2   &   3   &   4   &    1   &   2   &   3   &   4   &
e|--0-------0-------0-----------0--|-----------------3-------0---3---|
B|------------------------1--------|---------------------------------|
G|---------------------------------|---------------------------------|
D|----------2---------------3------|---------2---------------0-------|
A|--0------------------------------|-3-------------------------------|
E|------------------1--------------|-----------------3---------------|

74  1   &   2   &   3   &   4   &    1   &   2   &   3   &   4   &
e|--5-------5-------3-0---3--------|-----3-----3---------------------|
B|---------------------------------|-----------------3---3-3---------|
G|---------------------------------|---------------------------------|
D|----------2---------------3------|---------2---------------0-------|
A|--0------------------------------|-3-------------------------------|
E|------------------1--------------|-----------------3---------------|

76  1   &   2   &   3   &   4   &    1   &   2   &   3   &   4   &
e|--0-------0----------------------|-------------------------0---3---|
B|------------------3-----1-----1--|---------------------------------|
G|---------------------------------|---------------------------------|
D|----------2---------------3------|---------2---------------0-------|
A|--0------------------------------|-3-------------------------------|
E|------------------1--------------|-----------------3---------------|

78  1   &   2   &   3   &   4   &    1   &   2   &   3   &   4   &
e|--5-------5-------3-0---3--------|-----3-----3---------------------|
B|---------------------------------|-----------------3---3-3---------|
G|---------------------------------|---------------------------------|
D|---------------------------------|---------------------------------|
A|--0------------------------------|---------------------------------|
E|---------------------------------|---------------------------------|

80  1   &   2   &   3   &   4   &    1   &   2   &   3   &   4   &
e|--0-------0----------------------|---------------------------------|
B|------------------3-----1-----1--|---------------------------------|
G|---------------------------------|---------------------------------|
D|------------------3--------------|---------------------------------|
A|---------------------------------|-3-------------------------------|
E|---------------------------------|---------------------------------|
Tap to rate this tab
# A B C D E F G H I J K L M N O P Q R S T U V W X Y Z