Song name
# A B C D E F G H I J K L M N O P Q R S T U V W X Y Z

Of Monsters And Men - Little Talks tab

Little Talks Tab

(I made this in conjunction with Theavsfan's chords so if you ever want to change 
to chords, refer to Theavfan's)

Capo 1

Guitar 1 (an acoustic-electric guitar would do nicely or a slightly distorted 
electric guitar would do)
For Intro and First Chorus
e|----0-0-0---0---0~---3~-|-0-0-0---0------|-------0-0-0---0---0~---3~-|-0-0-0-3-0----------------|
B|-1--------1---1---------|-------1---3-1~-|-0-1-3-------1---1---------|-----------3-1~---0~------|
G|---------------------0~-|----------------|------------------------0~-|-------0---------------2~-|
D|----2-2-2---2---2~------|-2-2-2---2-0----|-----0-2-2-2---2---2~------|-2-2-2---2-0--------------|
A|-3--------3---3---------|-------3-----3~-|-2-3---------3---3---------|-------------3~---2~---0~-|
E|------------------------|----------------|---------------------------|--------------------------|

Second Chorus
e|----0-0-0---0---0~---3~-|-0-0-0---0------|---0-3-----5-5-3-0-3-|-3--3-----------0---0------------|
B|-1--------1---1---------|-------1---3-1~-|-1-------------------|-------3-3-3------------3---1-1~-|
G|---------------------0~-|----------------|-----0-----2-2-0---0-|-0--0----------------------------|
D|----2-2-2---2---2~------|-2-2-2---2-0----|---2-------------2---|-------0-0-0----2---2---0--------|
A|-3--------3---3---------|-------3-----3~-|-3-------------------|----------------------------3-3~-|
E|------------------------|----------------|---------------------|---------------------------------|

e|----0-0-0---0---0~---3~-|-0-0-0---0------|
B|-1--------1---1---------|-------1---3-1~-|
G|---------------------0~-|----------------|
D|----2-2-2---2---2~------|-2-2-2---2-0----|
A|-3--------3---3---------|-------3-----3~-|
E|------------------------|----------------|

e|---0-3----5-5-3-0-3-|-3--3-----------0~--0~-----------------|
B|-1------------------|-------3-3-3~-----------3---1-1~-0~----|
G|-----0----2-2-0---0-|-0--0-------------------------------2~-|
D|---2------------2---|-------0-0-0~---2~--2~--0--------------|
A|-3------------------|----------------------------3-3~-2~-0~-|
E|--------------------|---------------------------------------|

Third Chorus
e|----0-0-0---0---0~---3~-|-0-0-0---0------|---0-3----5-5-3-0-3-|-3--3-----------0---0------------|
B|-1--------1---1---------|-------1---3-1~-|-1------------------|-------3-3-3------------3---1-1~-|
G|---------------------0~-|----------------|-----0----2-2-0---0-|-0--0----------------------------|
D|----2-2-2---2---2~------|-2-2-2---2-0----|---2------------2---|-------0-0-0----2---2---0--------|
A|-3--------3---3---------|-------3-----3~-|-3------------------|----------------------------3-3~-|
E|------------------------|----------------|--------------------|---------------------------------|

e|----0-0-0---0---0~---3~-|-0-0-0---0------|
B|-1--------1---1---------|-------1---3-1~-|
G|---------------------0~-|----------------|
D|----2-2-2---2---2~------|-2-2-2---2-0----|
A|-3--------3---3---------|-------3-----3~-|
E|------------------------|----------------|

e|---0-3----5-5-3-0-3-|-3--3-----------0~--0~-----------------|
B|-1------------------|-------3-3-3~-----------3---1-1~-0~----|
G|-----0----2-2-0---0-|-0--0-------------------------------2~-|
D|---2------------2---|-------0-0-0~---2~--2~--0--------------|
A|-3------------------|----------------------------3-3~-2~-0~-|
E|--------------------|---------------------------------------|

Guitar 2
(this one should do the chords made by Theavfan with a little echo and clean. 
Preferably an electric guitar's certain setting)
http://tabs.ultimate-guitar.com/o/of_monsters_and_men/little_talks_crd.htm

Guitar 3
Solo
(in the solo, you can either leave the slide on vibrato or pluck it repeatedly)
(Louder than Guitar 1 but not louder than any other instrument)
e|-----------0-3s555555555555-3~-----|-0-0-0---0------|---0-3----5-5-3-0-3-|
B|-----0-1-3-------------------------|-------1---3-1~-|-1------------------|
G|-0-2-------------------------------|----------------|--------------------|
D|-----------------------------------|----------------|--------------------|
A|-----------------------------------|----------------|--------------------|
E|-----------------------------------|----------------|--------------------|

e|-3--3-----------0---0------------------|
B|-------3-3-3------------3---1-1~-0~----|
G|------------------------------------2~-|
D|---------------------------------------|
A|---------------------------------------|
E|---------------------------------------|


Bass
(http://tabs.ultimate-guitar.com/o/of_monsters_and_men/little_talks_ver2_btab.htm)
Recommending braden_hoch's Bass Tab

If you guys like it, don't be afraid to rate and comment!
And if there's a mistake I made, please tell and I'll clarify it. Thanks guys!
Tap to rate this tab
# A B C D E F G H I J K L M N O P Q R S T U V W X Y Z