Guitaretab - guitar tabs
Song name
# A B C D E F G H I J K L M N O P Q R S T U V W X Y Z

Of Montreal - Cutie Pie tab

-------------------------------------------------------------------------------
			     ďCutie PieĒ by Of Montreal
-------------------------------------------------------------------------------
Tabbed by:  J. Alexander Genz
Email:  Genzplusmalcolmxforever@yahoo.com

Tuning: standard, capo 4th fret. tune slightly flat if youíre playing along with the album.

e|----------------|
B|----------------|
G|--------------0-|
D|------0---2-----|
A|--2-----3-------|
E|3---------------|

e|---------------------------------------------------------------------------|
B|--------------------0---0---------0---------0--------------0---------------|
G|------------0---0---0---0---------5---------0-----------0--0---------------|
D|--------0---2-0-4---4---4---0-----4---------0--0h2h4-2h4---0---------------|
A|----2-----------2-------------3---3---2-0----------------------------------|
E|3-------------------------------5---------3--------------------------------|
  you are my cutie pie,     cutie pie, yes you are

e|---------------------------------------------------------------------------|
B|--------------------0---0---------0---------0--------------0---------------|
G|------------0---0---0---0---------5---------0-----------0--0---------------|
D|--------0---2-0-4---4---4---0-----4---------0--0h2h4-2h4---0---------------|
A|----2-----------2-------------3---3---2-0----------------------------------|
E|3-------------------------------5---------3--------------------------------|
  you are my cutie pie,     cutie pie, yes you are

e|0---0---0---2---2-2-2-2-2---3---3-----------------------------------0---0---0---0---|
b|0---0---0---3---3-3-3-3-3---5---5---4---4---4---4---3---3---0---0---2---2---2---2---|
g|0---0---0---2---2---2---2---3---3---2---2---2---2---2---2---1---1---0---0---0---0---|
d|------------------------------------3---3---3---3---3---3---2---2---2---2---2---2---|
A|------------------------------------------------------------------------------------|
E|------------------------------------------------------------------------------------|
Youíll be my cutie pie     until the day i die  i hope thatís a long time, cause i donít

e|-------------------------------|
B|0-----------------------------|
G|0-----------------------------|
D|0-----------------------------|
A|------------------------------|
E|------------------------------|
  wanna die...
[ Tab from: http://www.guitaretab.com/o/of-montreal/114796.html ]
e|---------------------------------------------------------------------------|
B|--------------------0---0---------0---------0--------------0---------------|
G|------------0---0---0---0---------5---------0-----------0--0---------------|
D|--------0---2-0-4---4---4---0-----4---------0--0h2h4-2h4---0---------------|
A|----2-----------2-------------3---3---2-0----------------------------------|
E|3-------------------------------5---------3--------------------------------|
  you are my cutie pie,     cutie pie, yes you are

e|---------------------------------------------------------------------------|
B|--------------------0---0---------0---------0--------------0---------------|
G|------------0---0---0---0---------5---------0-----------0--0---------------|
D|--------0---2-0-4---4---4---0-----4---------0--0h2h4-2h4---0---------------|
A|----2-----------2-------------3---3---2-0----------------------------------|
E|3-------------------------------5---------3--------------------------------|
  you are my cutie pie,     cutie pie, yes you are

e|0---0---0---2---2-2-2-2-2---3---3-----------------------------------0---0---0---0---|
b|0---0---0---3---3-3-3-3-3---5---5---4---4---4---4---3---3---0---0---2---2---2---2---|
g|0---0---0---2---2---2---2---3---3---2---2---2---2---2---2---1---1---0---0---0---0---|
d|------------------------------------3---3---3---3---3---3---2---2---2---2---2---2---|
A|------------------------------------------------------------------------------------|
E|------------------------------------------------------------------------------------|
Youíll be my cutie pie     until the day i die  i hope thatís a long time, cause i donít

e|------------------------------|
B|0--------------1------------|
G|0--------------0------------|
D|0--------------3------------|
a|---------------3-------------|
E|-----------------------------|
  wanna die and live without my

e|----------------|
B|----------------|
G|--------------0-|
D|------0---2-----|
A|--2-----3-------|
E|3---------------|
   cutie pie.

e|---------------------------------------------------------------------------|
B|--------------------0---0---------0---------0--------------0---------------|
G|------------0---0---0---0---------5---------0-----------0--0---------------|
D|--------0---2-0-4---4---4---0-----4---------0--0h2h4-2h4---0---------------|
A|----2-----------2-------------3---3---2-0----------------------------------|
E|3-------------------------------5---------3--------------------------------|


e|---------------------------------------------------------------------------|
B|--------------------0---0---------0---------0--------------0---------------|
G|------------0---0---0---0---------5---------0-----------0--0---------------|
D|--------0---2-0-4---4---4---0-----4---------0--0h2h4-2h4---0---------------|
A|----2-----------2-------------3---3---2-0----------------------------------|
E|3-------------------------------5---------3--------------------------------|


| /  slide up
| \  slide down
| h  hammer-on
| p  pull-off
| ~  vibrato
| +  harmonic
| x  Mute note
===============================================================================
Related for Cutie Pie tab