Song name
# A B C D E F G H I J K L M N O P Q R S T U V W X Y Z

Of Montreal - Wicked Wisdom tab

Like most of the songs on Skeletal Lamping, the bass is very important to
the song so I've included it here. I've called anything that isn't guitar 
or bass keyboard.
 
 
G
I'm a motherfucking headliner, bitch, you don't even know it
(Process it)
I'm a motherfucking headliner, bitch, you don't even know it
 
 
A
Why's it white girls don't ever have any ideas?
               F#m
and they don't even know
             D
what's on my channel
            Bm              A
But that is true for almost everyone
             D
Everyone but you
My goat, my crab, my scorpion
                              F#m
You're my icons 'cause you're different
       Bm
You're different
 
Dm7
All my wicked dreams
               Dm
Have turned my head to wet concrete
              Bbm          C7
Don't send me no more evil visions
          Dm
They just stab my heart.
 
Dm
I'm just a black she-male
And I don't know what you people are all about
What you people are all about
I just know how to make it
(Peanut butter) Like this
 
Dm7           F       F/G    C
Oooh, just to look at her is god
                 Em7
Can't you see it baby
                 Dm7
Can't you see it baby
                 G7
Can't you see it baby
Dm7           F       F/G    C
Oooh, just to look at her is god
                 Em7
Can't you see it baby
                 Dm7
Can't you see it baby
                 G7
Can't you see it baby
 
 
(snakessssss)
Am
When we get together
C
It's always hot magic
E
When we get together
Am
When we get together
Am
When we get together
C
It's always hot magic
E
When we get together
Am                     C                    Dm     F
It's always we are the champions, my friends
 
When we get together
We're gonna hit
What you work with
 
 
Ooh, you've got such super wicked style
Show it to me baby
Let me see it baby
Show me to your baby
Ooh, you've got such super wicked style
Show it to me baby
Let me see it baby
Show me to your baby
 
When we get together
It's always hot magic
When we get together
When we get together
When we get together
It's always hot magic
When we get together
It's always we are the champions, my friends
When we get together
We're gonna hit
What you work with
 
B7/D#
E7
 
F#m
All I care to hear
C#m                                             F#m
All them standing gray insects inside the house machines
                      C#m
Knowing what's coming next
                                            G#m     E
Something temporary reference for the other side
F#m
All I care to hear
C#m                                                 F#m
Elitist's commentary about some fated press limited edition
C#m                                                                G#m   E
I hear the toy ball bouncing on cheap hardwood do their elegant conceit
F#m
All I care to hear
C#m
You have such power to destroy
F#m                          C#m
No time to process that now
   G#m
So iconic in my mind
 
F#m   C#m
F#m   C#m
 
 
 
 
Part 1:(0:00)
 
Keyboard
   G
e|--------------3----------3-------3-------3-----3-------3------------|
B|--------------------------------------------------------------------|
G|--------------------------------------------------------------------|
D|--------------------------------------------------------------------|
A|--------------------------------------------------------------------|
E|--------------------------------------------------------------------|
Bass
G|---------------------------10h11-12---------------------------------|
D|-------------------10h11h12-----------9--9--12----------------------|
A|----------8h9-10-----------------------10-10---10----8888h9-10------|
E|----8h9h10----------------------------------------------------------|
 
Keyboard
e|---------3--------3-----3---------3-----3--------3-----------------|
B|-------------------------------------------------------------------|
G|-------------------------------------------------------------------|
D|-------------------------------------------------------------------|
A|-------------------------------------------------------------------|
E|-------------------------------------------------------------------|
Bass
G|-12p10-------------------------------------------------------------|
D|------12-------9--9--12-----------------------9--9--12-12-9--------|
A|---------10-----10-10---10----------8h9-10-----10-10---------------|
E|------------------------------8h9h10---------------------------11\-|
 
 
Part 2:(0:20)
Guitar(with delay)
e|-------------------------------------------------------------------------|
B|-------------------------------------------------------------------------|
G|-------------------------------------------------------------------------|
D|-------------------------------------------------------------------------|
A|-------------------9-------5-------------------5------------------9------|
E|-5---------------------------------7---5-----------------------------7---|
Bass
G|-----------------------------------------------777777777777991111--------|
D|-777777777777991111--------12121212999977777777----------------------9999|
A|-------------------99999999--------------------------------------9999----|
E|-------------------------------------------------------------------------|
 
 
 
 
 
Part 3:(0:39)
Guitar
   Dm7
e|---8-------8-------8------8----8-------8-------8-----8----|
B|---10------10------10-----10---10------10------10----10---|
G|---10------10------10-----10---10------10------10----10---|
D|----------------------------------------------------------|
A|----------------------------------------------------------|
E|----------------------------------------------------------|
Bass
G|----------------------------------------------------------|
D|----------------12-12-12--------------------12-12-12-10---|
A|---1010101011h12---------------1010101011h12--------------|
E|----------------------------------------------------------|
 
Guitar
   Dm
e|----5-------5-------5-----5-----5-------5-------5-----5----|
B|----6-------6-------6-----6-----6-------6-------6-----6----|
G|----7-------7-------7-----7-----7-------7-------7-----7----|
D|-----------------------------------------------------------|
A|-----------------------------------------------------------|
E|-----------------------------------------------------------|
Bass
G|-----------------------------------------------------------|
D|-----------------12-12-12/15-----------------12-12-12-10---|
A|----1010101011h12---------------1010101011h12--------------|
E|-----------------------------------------------------------|
 
Guitar
   Bbm                      C7                      Dm
e|-6-------6-------6-----6--6-------6------6----6---5-------5------5-----5-|
B|-6-------6-------6-----6--5-------5------5----5---6-------6------6-----6-|
G|-6-------6-------6-----6--5-------5------5----5---7-------7------7-----7-|
D|-------------------------------------------------------------------------|
A|-------------------------------------------------------------------------|
E|-------------------------------------------------------------------------|
Bass
G|--------------12-12-12-----------------9-9-9------------------14-14-12-10|
D|-101010101010-------------101010101010--------10--121212121212-----------|
A|-------------------------------------------------------------------------|
E|-------------------------------------------------------------------------|
 
 
 
Part 4:(0:55)
 
Keyboard
   Dm
e|---------------------------------------------------------------|
B|---------------6-6------------------------6-6----------------5-|
G|----------7-77-----7-5-7-77--------5-7-77-------5-7-77-------5-|
D|---------------------------------------------------------------|
A|---------------------------------------------------------------|
E|---------------------------------------------------------------|
Bass
G|-------------------------------5-------------------------------|
D|--12--------3------------3-------7-5---3------------3----------|
A|----12----5--5-----3-4-5--5----------5--5---------5--5-----3-4-|
E|-----------------5--------------------------1---3--------5-----|
 
Keyboard
e|------5-5-----------------------5-5-------------|
B|-6-66-6-6-6-5-6-66-------5-6-66-6-6-6-5-6-66----|
G|-7-77-----7-5-7-77-------5-7-77-----7-5-7-77----|
D|------------------------------------------------|
A|------------------------------------------------|
E|------------------------------------------------|
Bass
G|--------5-------------------------75------------|
D|---3------5-6---3------------3------7-5---753---|
A|-5--5---------5--5---3---4-5--5-----------------|
E|------------------------------------------------|
 
 
 
Part 5:(1:15)
 
Keyboard 1
   Dm7                     F   F/G C            Em7
e|-8---7---5-------------------------------------------------5-----|
B|-------------8---6---5-----------5-----8---8-----------8---------|
G|-------------------------7---5-----7-5---------7---5-------------|
D|-----------------------------------------------------7-----------|
A|-----------------------------------------------------------------|
E|-----------------------------------------------------------------|
Keyboard 2
e|-----------------------------------------------------------------|
B|-6-------------------------------5-------------3-----------------|
G|-7-------------------------------5-------------4-----------------|
D|-7-------------------------------5-------------5-----------------|
A|-----------------------------------------------------------------|
E|-----------------------------------------------------------------|
Bass
G|-----------------------------------------------------------------|
D|-------------------------3---5-------------5-----------9---------|
A|-5-------------------------------3-----7------7------------------|
E|-----------------------------------------------------------------|
 
Keyboard 1
   Dm7             G7
e|-----------------------------|
B|-6-5---8---------6---5-------|
G|-----7-----------------------|
D|-----------------------------|
A|-----------------------------|
E|-----------------------------|
Keyboard 2
e|-----------------------------|
B|-1---------------3-----------|
G|-2---------------4-----------|
D|-3---------------5-----------|
A|-----------------------------|
E|-----------------------------|
Bass
G|-----------------------------|
D|-----------------5-----------|
A|-5-7-5-3---------------------|
E|-----------------------------|
 
 
Keyboard 1
   Dm7                     F   F/G C            Em7
e|-8---7---5-------------------------------------------------5-----|
B|-------------8---6---5-----------5-----8---8-----------8---------|
G|-------------------------7---5-----7-5---------7---5-------------|
D|-----------------------------------------------------7-----------|
A|-----------------------------------------------------------------|
E|-----------------------------------------------------------------|
Keyboard 2
e|-----------------------------------------------------------------|
B|-6-------------------------------5-------------3-----------------|
G|-7-------------------------------5-------------4-----------------|
D|-7-------------------------------5-------------5-----------------|
A|-----------------------------------------------------------------|
E|-----------------------------------------------------------------|
Bass
G|-----------------------------------------------------------------|
D|-------------------------3---5-------------5-----------9---------|
A|-5-------------------------------3-----7------7------------------|
E|-----------------------------------------------------------------|
 
Keyboard 1
   Dm7             G7
e|-----------------------------|
B|-6-5---8---------6---5-------|
G|-----7-----------------------|
D|-----------------------------|
A|-----------------------------|
E|-----------------------------|
Keyboard 2
e|-----------------------------|
B|-1---------------3-----------|
G|-2---------------4-----------|
D|-3---------------5-----------|
A|-----------------------------|
E|-----------------------------|
Bass
G|-----------------------------|
D|-----------------5-----------|
A|-5-7-5-3---------------------|
E|-----------------------------|
 
(1:39)
Keyboard 1
   Am      C       E       Am      Am      C       E       Am
e|-5-------3-----------------------8-----------------------8---------|
B|-------------------------5-------10--------------5-------10--------|
G|-----------------------------------------5-------------------------|
D|-------------------------------------------------------------------|
A|-------------------------------------------------------------------|
E|-------------------------------------------------------------------|
Keyboard 2
e|---------3-------4-----7-5---------------3-------4-----7-5---------|
B|-5-------5-------5-------5---5---5-------5-------5-------5---5-----|
G|-5-------------------------------5---------------------------------|
D|-------------------------------------------------------------------|
A|-------------------------------------------------------------------|
E|-------------------------------------------------------------------|
Bass
G|-------------------------------------------------------------------|
D|-------------------------------------------------------------------|
A|-----------------7-7-----------------------------7-7---------------|
E|-5-5-----8-8-------------5-5-----5-5-----8-8-------------5-5-------|
 
Keyboard 1
   C       Dm      F
e|-3------------------------|
B|-5------------------------|
G|--------------------------|
D|--------------------------|
A|--------------------------|
E|--------------------------|
Keyboard 2
e|-----------------5-----7--|
B|-5-----8-6-------6--------|
G|-5-------7----------------|
D|--------------------------|
A|--------------------------|
E|--------------------------|
Bass
G|-----------------------12-|
D|--------------------------|
A|-3-3---375-5---/-8-8------|
E|--------------------------|
 
(2:01)
Keyboard 1
   Am        C         E         Am        Am        C         E
e|-8---------3-----------------------------8-----------------------------|
B|-10------------------5---------5---------10------------------5---------|
G|---------------------------------------------------5-------------------|
D|-----------------------------------------------------------------------|
A|-----------------------------------------------------------------------|
E|-----------------------------------------------------------------------|
Keyboard 2
e|-----------3---------4-------7-5-------------------3---------4-------7-|
B|-5---------5---------5---------5----5----5---------5---------5---------|
G|-5---------------------------------------5-----------------------------|
D|-----------------------------------------------------------------------|
A|-----------------------------------------------------------------------|
E|-----------------------------------------------------------------------|
Guitar
e|-----------------------------------------------------------------------|
B|-1-1-----011-1------13-3-0--0031-1-----011-1-----011-1------13-3-0--003|
G|-2-2-2--2020-0-0--02-4-4-1--1142-2-2--2022-2-2--2020-0-0--02-4-4-1--114|
D|-----2--2----------02--------------2--2------2--2----------02----------|
A|---------------3--3------------------------------------3--3------------|
E|-----------------------------------------------------------------------|
Bass
G|-----------------------------------------------------------------------|
D|-----------------------------------------------------------------------|
A|---------------------7-7-------------------------------------7-7-------|
E|-5-5-------8-8-----------------5-5-------5-5-------8-8-----------------|
 
Keyboard 1
   Am        C         Dm        F         Am
e|-8---------3-----------------------------8----------|
B|-10--------5-----------------------------10---------|
G|----------------------------------------------------|
D|----------------------------------------------------|
A|----------------------------------------------------|
E|----------------------------------------------------|
Keyboard 2
e|-5-----------------------------5------7-------------|
B|-5----5----5-------8-6---------6---------5----------|
G|-----------5---------7-------------------5----------|
D|----------------------------------------------------|
A|----------------------------------------------------|
E|----------------------------------------------------|
Guitar
e|----------------------------------------------------|
B|-1-1-----011-1-1--110---------01-1-1--1131-1-1--11--|
G|-2-2-2--2020-0-0--0022-2-2--2202-2-2--2242-2-2--22--|
D|-----2--2------------3-3-3--33----------------------|
A|----------------------------------------------------|
E|----------------------------------------------------|
Bass
G|----------------------------------------------------|
D|----------------------------------------------------|
A|-----------3-3-----375-5---/---8-8------------------|
E|-5-5-------------------------------------5-5--------|
 
(2:25)
Keyboard 1
   Dm7                     F   F/G C            Em7
e|-8---7---5-------------------------------------------------5-----|
B|-------------8---6---5-----------5-----8---8-----------8---------|
G|-------------------------7---5-----7-5---------7---5-------------|
D|-----------------------------------------------------7-----------|
A|-----------------------------------------------------------------|
E|-----------------------------------------------------------------|
Keyboard 2
e|-----------------------------------------------------------------|
B|-6-------------------------------5-------------3-----------------|
G|-7-------------------------------5-------------4-----------------|
D|-7-------------------------------5-------------5-----------------|
A|-----------------------------------------------------------------|
E|-----------------------------------------------------------------|
Bass
G|-----------------------------------------------------------------|
D|-------------------------3---5-------------5-----------9---------|
A|-5-------------------------------3-----7------7------------------|
E|-----------------------------------------------------------------|
 
Keyboard 1
   Dm7             G7
e|-----------------------------|
B|-6-5---8---------6---5-------|
G|-----7-----------------------|
D|-----------------------------|
A|-----------------------------|
E|-----------------------------|
Keyboard 2
e|-----------------------------|
B|-1---------------3-----------|
G|-2---------------4-----------|
D|-3---------------5-----------|
A|-----------------------------|
E|-----------------------------|
Bass
G|-----------------------------|
D|-----------------5-----------|
A|-5-7-5-3---------------------|
E|-----------------------------|
 
 
Keyboard 1
   Dm7                     F   F/G C            Em7
e|-8---7---5-------------------------------------------------5-----|
B|-------------8---6---5-----------5-----8---8-----------8---------|
G|-------------------------7---5-----7-5---------7---5-------------|
D|-----------------------------------------------------7-----------|
A|-----------------------------------------------------------------|
E|-----------------------------------------------------------------|
Keyboard 2
e|-----------------------------------------------------------------|
B|-6-------------------------------5-------------3-----------------|
G|-7-------------------------------5-------------4-----------------|
D|-7-------------------------------5-------------5-----------------|
A|-----------------------------------------------------------------|
E|-----------------------------------------------------------------|
Bass
G|-----------------------------------------------------------------|
D|-------------------------3---5-------------5-----------9---------|
A|-5-------------------------------3-----7------7------------------|
E|-----------------------------------------------------------------|
 
Keyboard 1
   Dm7             G7
e|-----------------------------|
B|-6-5---8---------6---5-------|
G|-----7-----------------------|
D|-----------------------------|
A|-----------------------------|
E|-----------------------------|
Keyboard 2
e|-----------------------------|
B|-1---------------3-----------|
G|-2---------------4-----------|
D|-3---------------5-----------|
A|-----------------------------|
E|-----------------------------|
Bass
G|-----------------------------|
D|-----------------5-----------|
A|-5-7-5-3---------------------|
E|-----------------------------|
 
(2:49)
Keyboard 1
   Am      C       E       Am      Am      C       E       Am
e|-5-------3-----------------------8-----------------------8---------|
B|-------------------------5-------10--------------5-------10--------|
G|-----------------------------------------5-------------------------|
D|-------------------------------------------------------------------|
A|-------------------------------------------------------------------|
E|-------------------------------------------------------------------|
Keyboard 2
e|---------3-------4-----7-5---------------3-------4-----7-5---------|
B|-5-------5-------5-------5---5---5-------5-------5-------5---5-----|
G|-5-------------------------------5---------------------------------|
D|-------------------------------------------------------------------|
A|-------------------------------------------------------------------|
E|-------------------------------------------------------------------|
Bass
G|-------------------------------------------------------------------|
D|-------------------------------------------------------------------|
A|-----------------7-7-----------------------------7-7---------------|
E|-5-5-----8-8-------------5-5-----5-5-----8-8-------------5-5-------|
 
Keyboard 1
   C       Dm      F
e|-3------------------------|
B|-5------------------------|
G|--------------------------|
D|--------------------------|
A|--------------------------|
E|--------------------------|
Keyboard 2
e|-----------------5-----7--|
B|-5-----8-6-------6--------|
G|-5-------7----------------|
D|--------------------------|
A|--------------------------|
E|--------------------------|
Bass
G|-----------------------12-|
D|--------------------------|
A|-3-3---375-5---/-8-8------|
E|--------------------------|
 
(3:11)
Keyboard 1
   Am        C         E         Am        Am        C         E
e|-8---------3-----------------------------8-----------------------------|
B|-10------------------5---------5---------10------------------5---------|
G|---------------------------------------------------5-------------------|
D|-----------------------------------------------------------------------|
A|-----------------------------------------------------------------------|
E|-----------------------------------------------------------------------|
Keyboard 2
e|-----------3---------4-------7-5-------------------3---------4-------7-|
B|-5---------5---------5---------5----5----5---------5---------5---------|
G|-5---------------------------------------5-----------------------------|
D|-----------------------------------------------------------------------|
A|-----------------------------------------------------------------------|
E|-----------------------------------------------------------------------|
Guitar
e|-----------------------------------------------------------------------|
B|-1-1-----011-1------13-3-0--0031-1-----011-1-----011-1------13-3-0--003|
G|-2-2-2--2020-0-0--02-4-4-1--1142-2-2--2022-2-2--2020-0-0--02-4-4-1--114|
D|-----2--2----------02--------------2--2------2--2----------02----------|
A|---------------3--3------------------------------------3--3------------|
E|-----------------------------------------------------------------------|
Bass
G|-----------------------------------------------------------------------|
D|-----------------------------------------------------------------------|
A|---------------------7-7-------------------------------------7-7-------|
E|-5-5-------8-8-----------------5-5-------5-5-------8-8-----------------|
 
Keyboard 1
   Am        C         Dm        F         Am
e|-8---------3-----------------------------8----------|
B|-10--------5-----------------------------10---------|
G|----------------------------------------------------|
D|----------------------------------------------------|
A|----------------------------------------------------|
E|----------------------------------------------------|
Keyboard 2
e|-5-----------------------------5------7-------------|
B|-5----5----5-------8-6---------6---------5----------|
G|-----------5---------7-------------------5----------|
D|----------------------------------------------------|
A|----------------------------------------------------|
E|----------------------------------------------------|
Guitar
e|----------------------------------------------------|
B|-1-1-----011-1-1--110---------01-1-1--1131-1-1--11--|
G|-2-2-2--2020-0-0--0022-2-2--2202-2-2--2242-2-2--22--|
D|-----2--2------------3-3-3--33----------------------|
A|----------------------------------------------------|
E|----------------------------------------------------|
Bass
G|----------------------------------------------------|
D|----------------------------------------------------|
A|-----------3-3-----375-5---/---8-8------------------|
E|-5-5-------------------------------------5-5--------|
 
 
 
 
Part 6:(3:35)
 
Keyboard
   B7              E
e|-5-----5-5---5---7-----7-7---7---|
B|-7-----7-7---7---9-----9-9---9---|
G|-8-----8-8---8---9-----9-9---9---|
D|-9-----9-9---9---9-----9-9---9---|
A|---------------------------------|
E|---------------------------------|
Bass
G|---------------------------------|
D|-13--------------14----1211--9---|
A|---------------------------------|
E|---------------------------------|
 
Keyboard
   F#m             C#m             F#m             C#m
e|-9-----9-9---9---9-----9-9---9---9-----9-9---9---9-----9-9---9---|
B|-10----1010--10--9-----9-9---9---10----1010--10--9-----9-9---9---|
G|-11----1111--11--9-----9-9---9---11----1111--11--9-----9-9---9---|
D|-11----1111--11--11----1111--11--11----1111--11--11----1111--11--|
A|-----------------------------------------------------------------|
E|-----------------------------------------------------------------|
Bass
G|-11------11--11--9-----------9---11------11--11--13------9-------|
D|-------------------------11----------------------------------11--|
A|-----------------------------------------------------------------|
E|-----------------------------------------------------------------|
 
Keyboard
   G#m             E
e|-7-----7-7---7---7-----7-7---7---|
B|-9-----9-9---9---9-----9-9---9---|
G|-8-----8-8---8---9-----9-9---9---|
D|-9-----9-9---9---9-----9-9---9---|
A|---------------------------------|
E|---------------------------------|
Bass
G|-13------13--16------------------|
D|-----------------14------14--14--|
A|---------------------------------|
E|---------------------------------|
 
Keyboard
   F#m             C#m             F#m             C#m
e|-9-----9-9---9---9-----9-9---9---9-----9-9---9---9-----9-9---9---|
B|-10----1010--10--9-----9-9---9---10----1010--10--9-----9-9---9---|
G|-11----1111--11--9-----9-9---9---11----1111--11--9-----9-9---9---|
D|-11----1111--11--11----1111--11--11----1111--11--11----1111--11--|
A|-----------------------------------------------------------------|
E|-----------------------------------------------------------------|
Bass
G|-11------11--11--9-----------9---11------11--11--13------9-------|
D|-------------------------11----------------------------------11--|
A|-----------------------------------------------------------------|
E|-----------------------------------------------------------------|
 
Keyboard
   G#m             E
e|-7-----7-7---7---7-----7-7---7---|
B|-9-----9-9---9---9-----9-9---9---|
G|-8-----8-8---8---9-----9-9---9---|
D|-9-----9-9---9---9-----9-9---9---|
A|---------------------------------|
E|---------------------------------|
Bass
G|-13------13--16------------------|
D|-----------------14------14--14--|
A|---------------------------------|
E|---------------------------------|
 
Keyboard
   F#m             C#m             F#m             C#m
e|-9-----9-9---9---9-----9-9---9---9-----9-9---9---9-----9-9---9---|
B|-10----1010--10--9-----9-9---9---10----1010--10--9-----9-9---9---|
G|-11----1111--11--9-----9-9---9---11----1111--11--9-----9-9---9---|
D|-11----1111--11--11----1111--11--11----1111--11--11----1111--11--|
A|-----------------------------------------------------------------|
E|-----------------------------------------------------------------|
Bass
G|-11------11--11--9-----------9---11------11--11--13------9-------|
D|-------------------------11----------------------------------11--|
A|-----------------------------------------------------------------|
E|-----------------------------------------------------------------|
 
Keyboard
   G#m             
e|-7-----7-7---7---x-----x-x---x---|
B|-9-----9-9---9---x-----x-x---x---|
G|-8-----8-8---8---x-----x-x---x---|
D|-9-----9-9---9---x-----x-x---x---|
A|---------------------------------|
E|---------------------------------|
Bass
G|-13------13--13------------------|
D|---------------------------------|
A|---------------------------------|
E|---------------------------------|
 
Keyboard
   F#m             C#m             F#m             C#m             G#m
e|-9-----9-9---9---9-----9-9---9---9-----9-9---9---9-----9-9---9---7---|
B|-10----1010--10--9-----9-9---9---10----1010--10--9-----9-9---9---9---|
G|-11----1111--11--9-----9-9---9---11----1111--11--9-----9-9---9---8---|
D|-11----1111--11--11----1111--11--11----1111--11--11----1111--11--9---|
A|---------------------------------------------------------------------|
E|---------------------------------------------------------------------|
Bass
G|-11------11--11--9-----------9---11------11--11--13------9-----------|
D|-------------------------11----------------------------------11------|
A|---------------------------------------------------------------------|
E|---------------------------------------------------------------------|
Tap to rate this tab
# A B C D E F G H I J K L M N O P Q R S T U V W X Y Z