Song name
# A B C D E F G H I J K L M N O P Q R S T U V W X Y Z

Of Montreal - Death Is Not A Parallel Move tab

C#m
All of my thoughts come from a foreign host
Now I feel just like a ghost
Now I feel just like a ghost
Now I feel just like a ghost
Now I feel just like a ghost

All of my thoughts come from a foreign host
Now I feel just like a ghost 
Now I feel just like a ghost
Now I feel just like a ghost
Now I feel just like a ghost

All of my thoughts come from a foreign host
Now I feel just like a ghost 
Now I feel just like a ghost
Now I feel just like a ghost
Now I feel just like a ghost


D

         Bm
Don't be afraid Lille Venn of violence
         Dmaj7                       Cmaj7
I'm only poisoning you, not going to stab you
         D            F#m7       G
Don't be afraid Lille Venn of my troubled mind
         Bb              F       C
I'm just poisoning you a little
        D
With my gloom

        B       F#             G#m    D#m G#m
There's far too much light and noise
   C#         F#        B    F#
It happens to be not so nice
       B           F#             G#m     D#m G#m
I must numb I must shatter I must diffuse
     C#                 F# 
This fractured consciousness
           B    F#
This soft abuse

    C#m7          C#m6         C#m7  
The identity I composed out of terror 
      C#m   F#
Has become oppressive now
  C#m
I must deny, defy, defeat this dark assignment
    A            C#
I'm over it now
       A           C#
I'm so over it now
         Bm              
Don't be afraid Lille Venn of violence
         D                           C
I'm only poisoning you, not going to shoot you
         D                       G
Don't be afraid Lille Venn of my troubled mind
         Bb              F        C
I'm just poisoning you a little
C
D
Every day 


There are lots of different keyboard parts in the first section. I've just 
tabbed out the main keyboard part and some of the riffs separately. You'll
have to listen to see where they come.

Keyboard
e|-9-------|-7-------|-5------|-6-----|
b|-9-------|-9-------|-7------|-5-----|
g|---------|---------|--------|-------|
d|---------|---------|--------|-------|   x 3 
a|---------|---------|--------|-------|
e|---------|---------|--------|-------|

Keyboard
e|-6-4-----------|   |---------|
b|-----7---7---9-|   |---------|
g|-------6---8---|   |----8-8--|
d|---------------|   |-4/6-6---| 
a|---------------|   |---------|
e|---------------|   |---------|

There are multiple guitars in this section but I've tried to just tab them
all together, but still playable.

Acoustic guitar:(0:50)
   D                                    Bm
e|-2-------0h2------0h2------0h2------|-2-------2-------2-------2-------|
b|---3---3----3---3----3---3----3---3-|---3---3---3-------3-------3-----|
g|-----2--------2--------2--------2---|-----4---------4-------4-------4-|
d|-0-------0--------0--------0--------|-------------4-------4-------4---|
a|------------------------------------|---------------------------------|
e|------------------------------------|---------------------------------|
   Dmaj7           Cmaj7             D       F#m7    G
e|-------5---------------3---------|-2-------2-------3---------------|
b|-7---------7-----5---------5-----|---3---3---2-------3-------3-----|
g|---6---------6-----4---------4---|-2-------2-----0-------4---4-----|
d|-----7---------7-----5---------5-|-----4-------2-------------------|
a|-5---------------3---------------|---------------------------------|
e|---------------------------------|---------------------------------|
   Bb      F        C
e|-1-------1--------0-----0----------0-------|
b|---3-------1--------1-------1--------1---1-|
g|-3-------2---2-0--0-------------0------0---|
d|-----3----------------2--------------------|
a|------------------3----------------3-------|
e|-------------------------------------------|
   D                                    B       F#      G#m   D#m G#m
e|-2-------0h2------0h2------0h2------|-2-------2-------4-----6-4-4-4---|
b|---3---3----3---3----3---3----3---3-|---4---0---2-------4---7-4-4-4---|
g|-----2--------2--------2--------2---|-----4-------3-------4-8-4-4-4---|
d|-0-------0--------0--------0--------|-----------------------8-6-6-6---|
a|------------------------------------|-2---------------------6-6-6-6---|
e|------------------------------------|---------2-------4-------4-4-4---|
   C#      F#      B      F#        B       F#      G#m   D#m G#m
e|-4-------2-------2-------2-------|-2-------2-------4-----6-4-4-4---|
b|---6---0---2-------4---0---2-----|---4---0---2-------4---7-4-4-4---|
g|-----6-------3-------4-------3---|-----4-------3-------4-8-4-4-4---|
d|---------------------------------|-----------------------8-6-6-6---|
a|-4---------------2---------------|-2---------------------6-6-6-6---|
e|---------2---------------2-------|---------2-------4-------4-4-4---|
   C#      F#      B      F#        
e|-4-------2-------2-------2---------------2-------|
b|---6---0---2-------4---0---2---2---2---2---2-----|
g|-----6-------3-------4-------3---------3-----3---|
d|-------------------------------------------------|
a|-4---------------2-------------------------------|
e|---------2---------------2---------------2-------|
   C#m7    C#m6    C#m7    C#m       F#
e|-7-----7-6-----6-4---------------|-2---------2-------------2---------|
b|---5-------5---5---5---5-7---5---|---2-------2-----------------2-----|
g|---------------------4-----------|-------3-----3h4---3-----------3---|
d|-----6---------------------------|-----4---------------2-------------|
a|-4-------4-------4-------4-------|-----------------------2-----------|
e|---------------------------------|-2---------------------------------|
   C#m                               A               C#
e|-4-----4-7-----7-----------------|-------5---------4-----4---------|
b|-----------------5-----5---------|-5-----5---5---0---6-------6-----|
g|-------------------------6-------|---6-------6-----------------6---|
d|-----------------------------6---|---------------------6---------6-|
a|---------------------------------|-----7-------7---4---------------|
e|---------------------------------|-5-------------------------------|
   A               C#                Bm
e|-5---------------4-----4---------|-2-------2-------2-------2-------|
b|---5---5---5-------6-------6---0-|---3-------3-------3-------3-----|
g|-----6-6---6---0-------------6---|-------4-------4-------4-------4-|
d|-------------7-------6-----------|-----4-------4-------4-------4---|
a|-----------------4---------------|---------------------------------|
e|-5-------------------------------|---------------------------------|
   Dmaj7           Cmaj7             D       F#m7    G
e|-------5---------------3---------|-2-------2-------3---------------|
b|-7---------7-----5---------5-----|---3---3---2-------3-------3-----|
g|---6---------6-----4---------4---|-2-------2-----0-------4---4-----|
d|-----7---------7-----5---------5-|-----4-------2-------------------|
a|-5---------------3---------------|---------------------------------|
e|---------------------------------|---------------------------------|
   Bb      F        C
e|-1-------1--------0-----0----------0---------0---0-|
b|---3-------1--------1-------1--------1---1---------|
g|-3-------2---2-0--0-------------0------0-----0-----|
d|-----3----------------2----------------------------|
a|------------------3----------------3---------------|
e|---------------------------------------------------|
   D
e|-2-----2-0h2----2-0h2----2-0h2------0h2-----2-0h2---0h2---|
b|---3--------3--------3--------3---3-----3---------3-----3-|
g|-----2--------2--------2--------2---------2---------------|
d|-0-------0--------0--------0--------0---------0-----------|
a|----------------------------------------------------------|
e|----------------------------------------------------------|
Tap to rate this tab
# A B C D E F G H I J K L M N O P Q R S T U V W X Y Z