Song name
# A B C D E F G H I J K L M N O P Q R S T U V W X Y Z

Of Montreal - Past Is A Grotesque Animal Acoustic tab

Help us improve GuitareTab! Take a short survey!
This acoustic version can be found on a CD entitled "I Found My
Tulip" containing other acoustic versions of their songs and some interviews

This pattern is repeated throughout the entire song.
   Cm                              Eb/B
e|-----------------------------------------------------------------|
B|-4-----4-------4-------4---------4-----4-------4-------4---------|
G|---5-------5-------5-------5-------3-------3-------3-------3-----|
D|-----5-------5-------5-------5-------5-------5-------5-------5---|
A|-3-------3-------3-------3---------------------------------------|
E|---------------------------------6-------6-------6-------6-------|
   Fm                              Ab
e|-1-----1-------1-------1-----------------------------------------|
B|---1-------1-------1-------1-------------------------------------|
G|-----1-------1-------1-------1---5-----5-------5-------5---------|
D|-3-------3-------3-------3---------6-------6-------6-------6-----|
A|-------------------------------------6-------6-------6-------6---|
E|---------------------------------4-------4-------4-------4-------|


Cheers.
Related for Past Is A Grotesque Animal Acoustic tab