Song name
# A B C D E F G H I J K L M N O P Q R S T U V W X Y Z

Of Montreal - Womens Studies Victims tab

Ab    Ab7    F#dim   Bbdim
Ab    Ab7    F#dim   Bbdim
Ab    Ab7    F#dim   Bbdim


Bm                   E7
They had painted her face like a man's mistake
                F#m
Gangbanging the sad return to the eagle-shaped mirror 
D                 A                         Bm
  I'm the kind of mannequin that cheats and opens its eyes
                     A
To the ladies of the spread

G
She took me home then spit in my drink
She spoke of Germaine Greer and Friedan 
I don't know what to think
I took her standing in the kitchen
Ass against the sink
She draped me in a stole (what kind?)
I think Malaysian mink

And threw me out into the snow
I waited for a bus
Up comes some values voters screaming, "Are you one of us?"
I said, "Of course man, can't you see I've got syntax reconstruction"
(What does that mean?) No clue
It must be illicit pentagram
(What are you talking about?) No clue

I check my shutter speed, my aperture, my domino 
Can't focus, can't stop staring at the face I used to know
This life is not a prison we are always free to go
Anytime

Chinese stars, Chinese stars, Chinese stars
Chinese stars my cousin had the rawist Chinese stars


I'm trying to interface 
You met me at such a dismal point on the arc
I think I understand what you were saying
About the smiles, of the skulls 
This spastic face was the last one
Our luck was white
I read it with my head open, I only slightly cracked
Somebody else will have to close it when I'm done
And make the most out of the visuals

C                         Gm
 While walking though the wood
              F                         Fm            Fm6    Em
I noticed someone had built a house for no bird in particular
n.c.
They want to destroy us (I know)
It's time to penetrate their fantasy 


Intro:(0:00)

Brass
   Ab              F#dim   Bbdim
e|-------------------------------------|
b|---------7------9--------------------|
g|-8-----------------------------------|
d|-10---(hold)-------------------------|
a|-11----------------------------------|
e|-------------------------------------|
Strings
e|-----------------8---8---6----/------|
b|-----------------10--10--5----/------|
g|---------------------11--6----/------|
d|--------------(tremelo)--(no tremelo)|
a|-------------------------------------|
e|-------------------------------------|
For the tremelo just strum quickly between the notes of the chord.

Repeat two more times.

(0:24)
Keyboard
   Bm          E7          F#m           D     A     Bm         A
e|-10----------10----------14------------10----12----10---------9-------|
b|-12----------12----------14------------10----14----12---------10------|
g|-11----------13----------14------------11----14----11---------9-------|
d|----------------------------------------------------------------------|
a|----------------------------------------------------------------------|
e|----------------------------------------------------------------------|


Verse 1:(0:50)
This verse is just the two basses.

Bass
g|------5h7----------|------5h7-----10-12-|---5h7-----------|---5h7--------|
d|-------------------|--------------------|-----------------|--------------|
a|-------------------|--------------------|-----------------|--------------|
e|-------------------|--------------------|-----------------|--------------|
Bass
g|-------------------|--------------------|-----------------|--------------|
d|-3h5---------------|-3h5----------8--10-|-5----------8-10-|-5------------|
a|-------------------|--------------------|-----------------|--------------|
e|-------------------|--------------------|-----------------|----------6-8-|

Bass
g|---5h7-----101010--9-9-9--|
d|--------------------------|
a|--------------------------|
e|--------------------------|
Bass
g|--------------------------|
d|-5---------111111--101010-|
a|--------------------------|
e|--------------------------|


Verse 2(1:11)
The basses first then the keyboard part.

Bass
g|-5h77777775h77777775h7777777--10-12-|
d|------------------------------------|
a|------------------------------------|
e|------------------------------------|  x 3
Bass
g|------------------------------------|  
d|-3h55555553h55555553h5555555--8--10-|
a|------------------------------------|
e|------------------------------------|  x 3

then

Bass
g|-10101010101010-8-7-7-7-7-7-8-8-10101010101010-8-7-7-7-7-7/12-10----|
d|--------------------------------------------------------------------|
a|--------------------------------------------------------------------|
e|--------------------------------------------------------------------|
Bass
g|--------------------------------------------------------------------|
d|------------------8-8-8-8-8-1010-----------------8-8-8-8-8/12-------|
a|-11111111111111-10--------------11111111111111-10-------------11----|
e|--------------------------------------------------------------------|

Now the keyboard part of the second verse.
(1:11)
Keyboard
e|12|12--10--1212--10-------1313121212--10--1212--10-----13131212-|
b|13|13--12--1313--12--12---1515131313--12--1313--12-----15151313-|
g|--|------------------12-----------------------------------------|
d|--|-------------------------------------------------------------|
a|--|-------------------------------------------------------------|
e|--|-------------------------------------------------------------|

e|-12--10--1212--10-------13131212-|-4---5-4-3---1----5---4-4-3-1-----4---|
b|-13--12--1313--12-------15151313-|-8---8-6-3--------9---8-6-3-------8---|
g|-------------------12------------|--------------------------------------|
d|---------------------------------|--------------------------------------|
a|---------------------------------|--------------------------------------|
e|---------------------------------|--------------------------------------|


Verse 3(1:36)

Bass
g|-------||-5h77777775h77777775h7777777--10-12-||
d|-------||------------------------------------||
a|-------||------------------------------------||
e|-------||------------------------------------||  x 2
Bass
g|---5-7-||------------------------------------||  
d|-8-----||-3h55555553h55555553h5555555--8--10-||
a|-------||------------------------------------||
e|-------||------------------------------------||  x 2

Bass
g|-5h77777775h77777775h7777777--101010--9-9-9--|-5h77777777-5----|
d|---------------------------------------------|-----------------|
a|---------------------------------------------|-----------------|
e|---------------------------------------------|-----------------|
Bass
g|---------------------------------------------|-----------------|
d|-3h55555553h55555553h5555555--111111--101010-|-3h55555555-3----|
a|---------------------------------------------|-----------------|
e|---------------------------------------------|-----------------|

Bass
g|-19-191919-191917-171717-171715-151515-151514-141414-141413-|
d|------------------------------------------------------------|
a|------------------------------------------------------------|
e|------------------------------------------------------------|
Bass
g|------------------------------------------------------------|
d|-20-202020-202019-191919-191917-171717-171715-151515-151514-|
a|------------------------------------------------------------|
e|------------------------------------------------------------|

Bass
g|-131313-131313-131313-131312-121212-121212121212141414--|-12-|
d|--------------------------------------------------------|----|
a|--------------------------------------------------------|----|
e|--------------------------------------------------------|----|
Bass
g|--------------------------------------------------------|----|
d|-141414-141414-141414-141413-131313-131313131313151515--|----|
a|--------------------------------------------------------|----|
e|--------------------------------------------------------|----|

Now the keyboard part of the third verse
(1:36)
Keyboard(with lots of echo)
e|-7-----------5---7-----------5---7-----------5---7-6-----|
b|-8-----------6-6-8-----------6-6-8-----------6-6-8-8-----|
g|---------------7---------------7---------------7---------|
d|---------------------------------------------------------|
a|---------------------------------------------------------|
e|---------------------------------------------------------|

New section
(2:05)

Bass
g|----------------------------------------10-10-10-----11-11-11-----13-|
d|-9--9--9------7--7--7------8--8--8-----------------------------------|
a|---------------------------------------------------------------------|
e|---------------------------------------------------------------------|

g|-----------------------13--------------13---|
d|-11-11-11--11/15-15-15---15---15-15-15---15-|
a|--------------------------------------------|
e|--------------------------------------------|

Repeat

Outro
(2:38)
Keyboard
   C       Gm      F       Fm  Fm6 Em
e|-12------10------8-----------10--7-------|
b|-13------11------10------9-------8-------|
g|-12------12------10------10------9-------|
d|-----------------------------------------|
a|-----------------------------------------|
e|-----------------------------------------|
Tap to rate this tab
# A B C D E F G H I J K L M N O P Q R S T U V W X Y Z