Guitaretab - guitar tabs
Song name
# A B C D E F G H I J K L M N O P Q R S T U V W X Y Z

Of Montreal - Repudiated Immortals tab

A          Em/A
F          G

A              Em/A              F                        G
The creator of whatís now clichť  had some funny words to say
Ēall you little things are incompleteĒ
why did he speak of us that way?
I donít cry not ícause I donít care
Itís very hard to feel the way we used to feel up there
The creator of whatís now clichť
F                          G7            C
 Wants us little things to cry and feel alone

    A7               Dm
But donít donít lose hope no no no no
F                   C                         F
No no no donít feel sad ícause itís a violent world
            E
But thereís still beauty
                                          A
Iíll take care of you if you take care of me

I like to sit and listen to the sound
Of the snowflakes landing on the trees
But I canít get used to feeling cold
I canít get used to what has happened here to you and me
Thereís no escaping so I wonít try
Itís just the heaviness that comes with knowing you will never die

    A7               Dm
But donít donít lose hope no no no no
F                   C                         F
No no no donít feel sad ícause itís a violent world
            E
But thereís still beauty
                                          N.C.
Iíll take care of you if you take care of me



[ Tab from: http://www.guitaretab.com/o/of-montreal/181266.html ]
Main riff: (intro + both verses throughout)
Electric Piano
  A                  Em/A                F               G
e|------------------------------------------------8--5---3-----------------|
b|5------------------5-------------------6---------------3----------3--6---|
g|6------------------4-------------------5---------------4-----------------|
d|7------------------5-------------------7---------------------------------|
a|-------------------------------------------------------------------------|
e|-------------------------------------------------------------------------|
Bass
g|---14141414-129/14---14141414-12---12----------------16---16161616-141214|
d|--------------------------------10/15---15151515---17--------------------|
a|-12----------------12-----------------15---------15-----17---------------|
e|-------------------------------------------------------------------------|


2nd riff: (2nd half of verses)
Electric Keyboard
   A           Em/A        F           G
e|-1212---1212-1212---1212-1313---1313-1515---1313-1313-|
b|-1414---1414-1212---1212-1313---1313-1515---1515-1212-|
g|------------------------------------------------------|
d|------------------------------------------------------|
a|------------------------------------------------------|
e|------------------------------------------------------|
   A           Em/A        F                G7
e|-1212---1212-1212---1212-1515--13131313---1515--13131313--1513-|
b|-1414---1414-1212---1212------------------1212--12121212--1212-|
g|-------------------------1414--14141414------------------------|
d|---------------------------------------------------------------|
a|---------------------------------------------------------------|
e|---------------------------------------------------------------|


Chorus
Piano
   C        A7   A    Dm       F                C        F
e|-33333333-3333-5555-55555555-8-8-8-8-8-8-8-8--33333333-8-8-8-8-8-8-8-8--|
b|-55555555-5555-5555-66666666-1010101010101010-55555555-1010101010101010-|
g|-55555555-6666-6666-77777777-1010101010101010-55555555-1010101010101010-|
d|------------------------------------------------------------------------|
a|------------------------------------------------------------------------|
e|------------------------------------------------------------------------|
   E
e|-7777777777777777-|
b|-9999999999999999-|
g|-9999999999999999-|
d|------------------|
a|------------------|
e|------------------|
Related for Repudiated Immortals tab