Song name
# A B C D E F G H I J K L M N O P Q R S T U V W X Y Z

Of Montreal - Raindrop In My Skull chords

Highlighted       Show chord diagrams
-------------------------------------------------------------------------------
                                               RAINDROP IN MY SKULL - OF MONTREAL
-------------------------------------------------------------------------------

Created by: dcolspector

C9sus4 - x33333
[ch]Gm/D[/ch] - x5578x
Dm - x57765
Ebmaj7 - x68786
Bbm6 - 6x566x

   [ch]Bb/A[/ch]                Bb                Asus4             A
e||-------------------|-----------------|-----------------|------------------||
B||---3-----3-------3-|-3-----3---------|-3-----3-------3-|-2-----2----------||
G||.-----3-------3----|---3-------3---0-|---2-------2-----|---2-------2---0-.||
D||.-------3-------3--|-----3-------3---|-----2-------2---|-----2-------2---.||
A||---0-------0-------|-1-------1-------|-0-------0-------|-0-------0--------||
E||-------------------|-----------------|-----------------|------------------||

F                     F6
There's a raindrop in my skull,
Bbm          C9sus4
I'm too shaky now to get it out.
F                         F6
I guess it fell from some far away cloud,
Bbm          C9sus4
Bloated with radiation.
[ch]Gm/D[/ch]      Dm                        Ebmaj7
Ooh, some people are singing of the birth,
           Dm
Of another soulless drone, 
       Ebmaj7  Bbm6          F
Who'll grow to leach off the Earth.
Bb   C   Csus4   C
Ooh.

My guitar feels strange in my hands,
I have almost no tactile perceptions
On the TV there's a Mexican horror film,
It isn't dubbed, I'm not really watching,
Ooh, some people are singing of the birth,
Of another Philistine, 
Who'll grow to ravage the Earth, ooh.

C#
Last night when you left me,
  Ebm
I took a walk through the fog,
        C#
And the gossamer ride of the strawmoon,
    Ebm
The haunting strangely humid pitch,
   Cm                 Bbm
Of winter's waning.
                  Cm
Then my recurring dream of the swarm.

F                     F6
There's a raindrop in my skull,
Bbm               C9sus4
I'm too messed up now to get it out.
F                         F6
It must've fallen when my mind was somewhere else,
Bbm         C9sus4
Now I'm fixating on it.
F    Fmaj7     Bb    C    D
Ooh.
Tap to rate this tab
# A B C D E F G H I J K L M N O P Q R S T U V W X Y Z