Song name
# A B C D E F G H I J K L M N O P Q R S T U V W X Y Z

Of Montreal - Sirens Of Your Toxic Spirit chords

Highlighted       Show chord diagrams
-------------------------------------------------------------------------------
                                  SIRENS OF YOUR TOXIC SPIRIT - OF MONTREAL
-------------------------------------------------------------------------------

Created by: dcolspector

  E7                                                    
e|-0--------0-------|-0--------0-------|-0--------0-------|-0-------------------|
B|---3--------3-----|---3--------3-----|---3--------3-----|---3-----0h3---0h3---|
G|-------1--------1-|-------1--------1-|-------1--------1-|-------1-------------|
D|-----2--------2---|-----2--------2---|-----2--------2---|-----2---------------|
A|------------------|------------------|------------------|---------------------|
E|-0--------0-------|-0--------0-------|-0--------0-------|-0-----------0-----0 |
  
  A      Asus4 Aaddb9   A
e|---------------------|-----------------|---|
B|-2-------2h3---------|---------2-------|---|
G|---2---2-------2h3---|-2---2-----2-----|---|
D|-----2---------------|-------2---------|---|
A|-0-----------0-----0-|---0---------0-1-|-2-|
E|---------------------|-----------------|---|

Bm            (F#  F) - single notes
What I recall,
E                  (G#) A       A/G#m
   Remember best is the insanity,
        F#m      [ch]F#m/B[/ch]    F#m    [ch]F#m/B[/ch]
And the clatter.

Misapprehensions are killing you,
But not fast enough to really matter.

    B      
The flume of your struggle,
(C#) D
It's flooded with sorrow and it,
B             (C#) D       Dsus2    A
Poisons everybody  near it.
       (B) C#m            (E F) F#
I'm not a  patron of yours any--more,
              B    B7
Don't want to hear it.
     E7                   F#m       B7    F#m 
The sirens of your toxic spirit,            
E7      A
    Ooh.

Of your addictions and shiftiness,
Inherited from your father,
I know you struggle to keep them in check,
But at this point why even bother?

The flume of your struggle,
It's flooded with sorrow and it,
Poisons everybody near it.
But I'm not a patron of yours anymore,
Don't want to hear it.
The sirens of your toxic spirit
Ooh.

What friendships you have left,
They're not derived from love.
They're just some warped form of charity,
I've wounded you and you've wounded you too,
At least we can feel good about the parity.

The flume of your struggle,
It's flooded with sorrow and it,
Poisons everybody near it.
But I'm not a patron of yours anymore,
Don't want to hear it.
The sirens of your toxic spirit,
Ooh.

A
Tap to rate this tab
# A B C D E F G H I J K L M N O P Q R S T U V W X Y Z