Guitaretab - guitar tabs
Song name
# A B C D E F G H I J K L M N O P Q R S T U V W X Y Z

Of Montreal - Requiem For Omm tab

Highlighted       Show chord diagrams
Band:Of Montreal
Song:

chords by jam9383@yahoo.com

The Loacation of chord changes are not exact
ie listen for changes

First Chord
F#


Fragments played by the guitar tabbed are

   B        E       C#m       F#
e-------------------------------------|
b--12------9--------5---------11------|
G--11------9--------6---------11------|
D-------------------------------------|
A-------------------------------------|
E-------------------------------------|


B
When I met you I was just a kid
                     E
hadnít built up my defenses
                     B
so I gave my heart completely
                     E
vaseline over the lenses
             C#m
memories donít go away
                  F#
I remember every day


B  E
   I never ever stop wondering
B  E
   Wondering if you still think of us
B  E
   I donít need a photograph
             C#m               F#
cause youíve never left my mind
             C#m               F#
No youíve never left my mind
[ Tab from: http://www.guitaretab.com/o/of-montreal/75316.html ]
I remember feeling like a ship
whose captain was too drunk to steer
and you watched as I was sinking
waving sadly from the pier

                  C#m
Itís such a burden to carry íround
E                   B
the vestiges of dead dreams
        C#m
and I donít want to make a wake out of my life
               F#
I just had to let you go


  Outro thing check song for length of each note

e----------------------7-6-7--6-----------------|
b----9--11--9--7----------------9-7-5-7-9-------|
G-----------------------------------------------|
D-----------------------------------------------|
A-----------------------------------------------|
E-----------------------------------------------|

e-------------------------------------------------|
b----7-5-4-2-4-2-2-----7-5-4-2-4-2-4-5-7-9-11-----|
G-------------------------------------------------|
D-------------------------------------------------|
A-------------------------------------------------|
E-------------------------------------------------|

e-----------------------------------------------|
b---11-12-14-12---------------------------------|
G-----------------------------------------------|
D-----------------------------------------------|
A-----------------------------------------------|
E-----------------------------------------------|

ends on B


rate or comments contact me...
Related for Requiem For Omm tab