Song name
# A B C D E F G H I J K L M N O P Q R S T U V W X Y Z

Of The Wand And The Moon - Followe Thy Faire Sunne Unhappy tab

Band/Song: Of The Wand And The Moon - Followe Thy Faire Sunne Unhapp
Album: Lucifer

Tabbed by: RhoninX - http://profile.ultimate-guitar.com/RhoninX/
Email: lisekpl(a)o2.pl
Date: 13.08.2009

Tuning: Standard


Verse

     ^    ^  v  ^  v     ^    ^  v  ^  v     ^    ^  v  ^  v     ^    ^  v  ^  v   
     Q    E  E  E  E     Q    E  E  E  E     Q    E  E  E  E     Q    E  E  E  E   
E||--0----------------|--0----------------|--0----------------|--0----------------|
B||--1----1--1--1--1--|--1----1--1--1--1--|--1----1--1--1--1--|--1----1--1--1--1--|
G||--2----2--2--2--2--|--2----2--2--2--2--|--0----0--0--0--0--|--0----0--0--0--0--|
D||--2----2--2--2--2--|--2----2--2--2--2--|--2----2--2--2--2--|--2----2--2--2--2--|
A||--0----0--0--0--0--|--0----0--0--0--0--|--3----3--3--3--3--|--3----3--3--3--3--|
E||-------------------|-------------------|-------------------|-------------------|


  ^    ^  v  ^  v     ^    ^  v  ^  v     ^    ^  v  ^  v     ^    ^  v  ^  v   
  Q    E  E  E  E     Q    E  E  E  E     Q    E  E  E  E     Q    E  E  E  E   
--0----------------|--0----------------|--0----------------|--0----------------|
--1----1--1--1--1--|--1----1--1--1--1--|--0----0--0--0--0--|--0----0--0--0--0--|
--2----2--2--2--2--|--2----2--2--2--2--|--0----0--0--0--0--|--0----0--0--0--0--|
--2----2--2--2--2--|--2----2--2--2--2--|--2----2--2--2--2--|--2----2--2--2--2--|
--0----0--0--0--0--|--0----0--0--0--0--|--2----2--2--2--2--|--2----2--2--2--2--|
-------------------|-------------------|--0----0--0--0--0--|--0----0--0--0--0--|


Chorus

  ^    ^  v  ^  v     ^    ^  v  ^  v     ^    ^  v  ^  v     ^    ^  v  ^  v   
  Q    E  E  E  E     Q    E  E  E  E     Q    E  E  E  E     Q    E  E  E  E   
--3----------------|--3----------------|--0----------------|--0----------------|
--3----3--3--3--3--|--3----3--3--3--3--|--1----1--1--1--1--|--0----0--0--0--0--|
--0----0--0--0--0--|--0----0--0--0--0--|--2----2--2--2--2--|--2----2--2--2--2--|
--0----0--0--0--0--|--2----2--2--2--2--|--2----2--2--2--2--|--2----2--2--2--2--|
--2----2--2--2--2--|--3----3--3--3--3--|--0----0--0--0--0--|--0----0--0--0--0--|
--3----3--3--3--3--|--0----0--0--0--0--|-------------------|-------------------|


  ^    ^  v  ^  v     ^    ^  v  ^  v     ^    ^  v  ^  v     ^    ^  v  ^  v   
  Q    E  E  E  E     Q    E  E  E  E     Q    E  E  E  E     Q    E  E  E  E   
--0----------------|--0----------------|--0----------------|--0----------------|
--0----0--0--0--0--|--3----3--3--3--3--|--1----1--1--1--1--|--3----3--3--3--3--|
--0----0--0--0--0--|--2----2--2--2--2--|--0----0--0--0--0--|--2----2--2--2--2--|
--2----2--2--2--2--|--0----0--0--0--0--|--2----2--2--2--2--|--0----0--0--0--0--|
--2----2--2--2--2--|--0----0--0--0--0--|--3----3--3--3--3--|--0----0--0--0--0--|
--0----0--0--0--0--|-------------------|-------------------|-------------------|


  ^    ^  v  ^  v     ^    ^  v  ^  v     ^    ^  v  ^  v     ^    ^  v  ^  v   
  Q    E  E  E  E     Q    E  E  E  E     Q    E  E  E  E     Q    E  E  E  E   
--3----------------|--3----------------|--0----------------|--0----------------|
--3----3--3--3--3--|--3----3--3--3--3--|--1----1--1--1--1--|--0----0--0--0--0--|
--0----0--0--0--0--|--0----0--0--0--0--|--2----2--2--2--2--|--2----2--2--2--2--|
--0----0--0--0--0--|--2----2--2--2--2--|--2----2--2--2--2--|--2----2--2--2--2--|
--2----2--2--2--2--|--3----3--3--3--3--|--0----0--0--0--0--|--0----0--0--0--0--|
--3----3--3--3--3--|--0----0--0--0--0--|-------------------|-------------------|


  ^    ^  v  ^  v     ^    ^  v  ^  v     ^    ^  v  ^  v     ^    ^  v  ^  v    
  Q    E  E  E  E     Q    E  E  E  E     Q    E  E  E  E     Q    E  E  E  E    
--0----------------|--0----------------|-------------------|-------------------||
--0----0--0--0--0--|--3----3--3--3--3--|--0----------------|--3----3--3--3--3--||
--0----0--0--0--0--|--2----2--2--2--2--|--0----0--0--0--0--|--0----0--0--0--0--||
--2----2--2--2--2--|--0----0--0--0--0--|--0----0--0--0--0--|--0----0--0--0--0--||
--2----2--2--2--2--|--0----0--0--0--0--|--2----2--2--2--2--|--2----2--2--2--2--||
--0----0--0--0--0--|-------------------|--3----3--3--3--3--|--3----3--3--3--3--||




Duration Legend
---------------
Q - quarter
E - 8th

Tablature Legend
----------------
^ - brush up
v - brush down
Tap to rate this tab
# A B C D E F G H I J K L M N O P Q R S T U V W X Y Z