Song name
# A B C D E F G H I J K L M N O P Q R S T U V W X Y Z

Of The Wand And The Moon - Heres An Ode tab

Band/Song: Of The Wand And The Moon - Here's An Ode
Album: Sonnenheim

Tabbed by: RhoninX - http://profile.ultimate-guitar.com/RhoninX/
Email: lisekpl(a)o2.pl
Date: 22.08.2009

Tuning: Standard


Repeat this riff throughout the whole song.


     ^  ^ v  v ^  ^  ^     ^  ^ v  v ^  ^  ^   
     E  S E  S E  E  E     E  S E  S E  E  E   
E||--0------------0-----|--0------------0-----|
B||--0--0-0--0-0--0--0--|--3--3-3--3-3--3--0--|
G||--0--0-0--0-0--0--0--|--0--0-0--0-0--0--0--|
D||--2--2-2--2-2--2--0--|--0--0-0--0-0--0--0--|
A||--2--2-2--2-2--2--0--|--2--2-2--2-2--2--0--|
E||--0--0-0--0-0--0--0--|--3--3-3--3-3--3--0--|


  ^  ^ v  v ^  ^  ^     ^  ^ v  v ^  ^  ^    
  E  S E  S E  E  E     E  S E  S E  E  E    
--0------------0-----|--0------------0-----||
--1--1-1--1-1--1--1--|--0--0-0--0-1--1--0--||
--2--2-2--2-2--2--2--|--0--0-0--0-0--0--0--||
--2--2-2--2-2--2--0--|--0--0-0--0-2--2--0--||
--0--0-0--0-0--0--0--|--2--2-2--2-3--3--0--||
--0--0-0--0-0--0--0--|--3--3-3--3-0--0--0--||




Duration Legend
---------------
E - 8th
S - 16th


Tablature Legend
----------------
^ - brush up
v - brush down
Tap to rate this tab
# A B C D E F G H I J K L M N O P Q R S T U V W X Y Z