Song name
# A B C D E F G H I J K L M N O P Q R S T U V W X Y Z

Off By One - Finish Line tab

Help us improve GuitareTab! Take a short survey!
off by one - finish line
tabbeb by al-x punk

e------------------------------------------------------ 
B------------------------------------------------------
G--- -4------------------------------------------------
D--5--4--2--2------------------------------------------
A--5--2--2--2(this last one palm muted.----------------
E--3-----0--0------------------------------------------
            
verse
e--------- 
B---------
G-----4--
D--5--4--
A--5--2--
E--3-----            

chorus
e------------------------------------------------------ 
B------------------------------------------------------
G--- -4-----5------------------------------------------
D--5--4--2--5------------------------------------------
A--5--2--2--3------------------------------------------
E--3-----0---------------------------------------------
            
e----- 
B-----
G-----
D--5--
A--5--
E--3--            

that is basicly the song
do dont know the solo
its really easy
have fun.
dedicated to my punk rock girl
Related for Finish Line tab