Song name
# A B C D E F G H I J K L M N O P Q R S T U V W X Y Z

Off With Their Heads - For The Four tab

Official band website
 http://www.epitaph.com/artists/artist/275/Off_With_Their_Heads

Off With Their Heads - For The Four
 Tabbed by jimmyt109@gmail.com

Intro:
e-------------------------------------------------------------------------|
b-------------------------------------------------------------------------|
g------5----------------5-7777-5555---------------------------------------|
d-5X55-5-5555-3333-5X55-5-7777-5555---------------------------------------|
a-5X55-3-5555-3333-5X55-3-5555-3333---------------------------------------|
D-3X33---3333-1111-3X33---------------------------------------------------|x2

Verse: 
e-------------------------------------------------------------------------|
b-------------------------------------------------------------------------|
g----------55555555----------55555555----------55555555-77777777-55555555-|
d-55555555-55555555-55555555-55555555-55555555-55555555-77777777-55555555-|
a-55555555-33333333-55555555-33333335-55555555-33333333-55555555-33333333-|
D-33333333----------33333333----------33333333----------------------------|

Bridge:
e-------------------------------------------------------------------------|
b-------------------------------------------------------------------------|
g-----------------------77777777----------77777777----------77777777------|
d-55555555-5-4-22222222-77777777-22222222-55555555-22222222-55555555------|
a-55555555-5-4-22222222-55555555-22222222-55555555-22222222-55555555------|
D-33333333-3-2-00000000----------00000000----------00000000---------------|x2

e-------------------------------------------------------------------------|
b-------------------------------------------------------------------------|
g-55555555-77777777-------------------------------------------------------|
d-55555555-77777777-------------------------------------------------------|
a-33333333-55555555-------------------------------------------------------|
D-------------------------------------------------------------------------|

Chorus:
e-------------------------------------------------------------------------|
b-------------------------------------------------------------------------|
g------------------55555555-77777777--------------------------------------|
d-5555555555555555 55555555-77777777--------------------------------------|
a-5555555555555555-33333333-55555555--------------------------------------|
D-3333333333333333--------------------------------------------------------|x2

Bridge 2:
e-------------------------------------------------------------------------|
b-------------------------------------------------------------------------|
g-------------------------------------------------------------------------|
d-55555555----------------------------------------------------------------|
a-55555555----------------------------------------------------------------|
D-33333333----------------------------------------------------------------|

e-------------------------------------------------------------------------|
b-------------------------------------------------------------------------|
g---------77777777---------77777777---------77777777----------------------|
d-5-4-2-2-77777777-5-4-2-2-77777777-5-4-2-2-77777777-5-4-55555555-77777777|
a-5-4-2-2-55555555-5-4-2-2-55555555-5-4-2-2-55555555-5-4-55555555-77777777|
D-3-2-0-0----------3-2-0-0----------3-2-0-0----------3-2-33333333-55555555|x2

Song Order:
 Intro
 Verse
 Intro
 Verse
 Bridge
 Chorus
 Bridge 2
 Chorus
Tap to rate this tab
 
# A B C D E F G H I J K L M N O P Q R S T U V W X Y Z