Off With Their Heads - I Just Want You To Know chords

Highlighted       Show chord diagrams
Yay, first time uploading something to UG. 
This one is real easy. Just listen to the song to hear when it's time to p.m or let ring. 
A really beautiful song and effective thighspreader for all of you out there! ;>

----------------------------------------------------
(intro)
C
(verse 1)
F       G              C
I don't want you to be worried now
F       G                 C
I don't want you to loose sleep
F       G              C
I don't want you to be concerned about me
F               G
So please don't be
F       G                 C
I don't want you to check up on me
F              G           C
'Cause I don't want you to see
F               G       C
Everything that I've become
F                              G
And it makes, me seem, seem so weak

(verse 2)
I don't want you to feel overwhelmed
It's so unnecessary
Take all the time that you need for yourself
To see, the things I see
I don't want you to write me letters
I'm so tired I can't read
I don't want you to give me advice
Just close your eyes, and listen to me

(ref)
       C                                               F
I just want you to know that I think about you all the time
       Am     G     F      G
You're always on my mind
        C                                         F
I would never let anyone hurt you with me by your side
       Am      G            F   G
You're safe as long as I'm alive

(solo, enterpritation below)
C, F, G
C, F, G, Am

(ref)
       C                                               F
I just want you to know that I think about you all the time
       Am     G     F      G
You're always on my mind
        C                                         F
I would never let anyone hurt you with me by your side
       Am      G            F   G
You're safe as long as I'm alive
F   G
Alive
F   G
Alive
F   G   C
Alive


The "solo" is just wandering the pick up and down on the chords and let the notes 
ring, this is approx. how I play it:

|(F)                    |(G)                       |:(C)x2                  :|
E----1--------1---------|-----3--------3-----------|                         |
B-------1--------1-----1/(3)-----3--------3-----3--|                         |
G-2--------2--------2---|-4---------4--------4-----|(play rythm on C)        |
D-----------------------|--------------------------|                         |
A-----------------------|--------------------------|                         |
E-----------------------|--------------------------|                         |
|                       |                          |:                       :|

|(F)                    |(G)                       |:(Am)x3                 :| bend        release|
E----1--------1---------|-----3--------3-----------|----5--------5-----------|--------------------|
B-------1--------1-----1/(3)-----3--------3-----3--|-------5--------5-----5--|--------------------|
G-2--------2--------2---|-4---------4--------4-----|-5--------5--------5-----|-7--7--7--7--7--7--5|
D-----------------------|--------------------------|-------------------------|--------------------|
A-----------------------|--------------------------|-------------------------|--------------------|
E-----------------------|--------------------------|-------------------------|--------------------|
|                       |                          |:                       :|                    |

(c)2010 kaptenk

---------------------------------------------

Enjoy and have fun!
Tap to rate this tab
 
# A B C D E F G H I J K L M N O P Q R S T U V W X Y Z