Song name
# A B C D E F G H I J K L M N O P Q R S T U V W X Y Z

Off With Their Heads - Die Today tab

Die Today

Intro
e|--------------------------------------------------------------------------------|
B|--------------------------------------------------------------------------------|
G|--5--5-5----------------5--5-5--10--9--7--5-------------------------------------|
D|--5--5-5---3--5-5-------5--5-5--10--9--7--5-------------------------------------|
A|--3--3-3---3--5-5-------3--3-3--8---7--5--3-------------------------------------|
E|-----------1--3-3---------------------------------------------------------------|

Verse 1
e|-------------------------------------------------------------------------|
B|-------------------------------------------------------------------------|
G|---5---------------------------------------------------------------------|
D|---5-x16-----7--------3-----5--------------------------------------------|
A|---3---------7-x16----3-x16-5--x16---------------------------------------|
E|-------------5--------1-----3--------------------------------------------|

Verse 2
e|-------------------------------------------------------------------------|
B|-------------------------------------------------------------------------|
G|---5---------------------------------------------------------------------|
D|---5-x16-----7--------3-----5------7-------3-----5-----------------------|
A|---3---------7-16-----3-x8--5-x8---7-x16---3-x8--5-x8--------------------|
E|-------------5--------1-----3------5-------1-----3-----------------------|


Solo
e|---------------------------------------------------------------------------------|
B|---------------------------------------------------------------------------------|
G|---------------------------------------------------------------------------------|
D|---------------------------------------------------------------------------------|
A|---7-5-------5-7-8-5----7-5--------5-7-8-5--7-5--------8-7-5---------5-7-5-------|
E|-------8---8----------------8----8--------------8----5--------5-7-8-------8------|

Outro....figure out the timing by yo self 
e|-------------------------------------------|
B|-------------------------------------------|
G|------------5------------------------------|
D|--------7---5---3--5-----------------------|
A|--------7---3---3--5-----------------------|
E|--------5-------1--3-----------------------|


Intro x2
Verse 1
Verse 2
Intro x2
Verse 1 (guitar 1 does palm mutes and guitar 2 hold notes)
Verse 2
Solo x2 (guitar 2 does Verse 1 hold notes)
Outro
Verse 1
Verse 2
Intro x2
Tap to rate this tab
 
# A B C D E F G H I J K L M N O P Q R S T U V W X Y Z