Song name
# A B C D E F G H I J K L M N O P Q R S T U V W X Y Z

Off With Their Heads - Seek Advice Elsewhere tab

Seek Advice Elsewhere

Intro
e|--------------------------------------------------------------------------|
B|--------------------------------------------------------------------------|
G|-5--------------------5-----------5----------------------5----------------|
D|-5-x5--3-----5-----3--5-x5--------5-x5--3-----5----3-----5-x5-------------|
A|-3-----3-x5--5-x3--3--3-----------3-----3-x5--5-x3-3-x3--3----------------|
E|-------1-----3-----1--------------------1-----3----1----------------------|

Verse One
e|---------------------------------------------------------------------------|
B|---------------------------------------------------------------------------|
G|--5----------------------5----------------------5--------------------------|
D|--5-x8-3----5----3-------5-x8--3-----5----3-----5-x8-----------------------|
A|--3----3-x8-5-x8-3-x8----3-----3-x8--5-x4-3-x4--3--------------------------|
E|-------1----3----1-------------1-----3----1--------------------------------|

Verse Two
e|--------------------------------------------------------------x-x---x-x---x-x---x-x-----------|
B|--------------------------------------------------------------x-x---x-x---x-x---x-x-----------|
G|--------5---------------5----------------5--------------------x-x---x-x---x-x---x-x---5---5---|
D|-3------5-x16---5-------5--x16----3------5-x8--7-----6------5-x-x-5-x-x-5-x-x-5-x-x---5---5---|
A|-3-x16--3-------5--x16--3---------3-x16--3-----7-x8--6-x16--5-x-x-5-x-x-5-x-x-5-x-x---3---3---|
E|-1--------------3-----------------1------------5-----4------3-x-x-3-x-x-3-x-x-3-x-x-----------|

Outro
e|----------------------------------------|
B|----------------------------------------|
G|-------------5--------------------------|
D|--5----3-----5-x8-------FEEDBACK--------|
A|--5-x4-3-x4--3--------------------------|
E|--3----1--------------------------------|

Intro x4
Verse One x2
Intro x2
Verse One x2
Verse Two x1
Verse One x1
Outro x2
Tap to rate this tab
 
# A B C D E F G H I J K L M N O P Q R S T U V W X Y Z