Song name
# A B C D E F G H I J K L M N O P Q R S T U V W X Y Z

Off With Their Heads - Janie tab

Janie (Home Version but the other version is just a half step down)

Intro
e|---------------------------------------------------------------------------------|
B|---------------------------------------------------------------------------------|
G|-5-5-----5-5-----5-5-------------------------------------------------------------|
D|-5-5-5-5-5-5-5-5-5-5-5-5-3-3-5-5-------------------------------------------------|
A|-3-3-5-5-3-3-5-5-3-3-5-5-3-3-5-5-------------------------------------------------|
E|-----3-3-----3-3-----3-3-1-1-3-3-------------------------------------------------|

                guitar 2 part (on the 2 and 4 of the intro)
e|--------0--0------------------------0--0--------------------------------------|
B|--------0--0------------------------0--0--------------------------------------|
G|--5-----0--0--(First Set)--------9--0--0---(Second)---------------------------|
D|--5-----0--0--upstrokes----------7--0--0-------upstrokes----------------------|
A|--3-----0--0---------------------7--0--0--------------------------------------|
E|--------0--0------------------------0--0--------------------------------------|

Verse
e|------------------------------------------------------------------------|
B|------------------------------------------------------------------------|
G|-3----------------------------------------------------------------------|
D|-5-x16----5-------3-------5---------------------------------------------|
A|-3--------5-x16---3-x16---5-x16-----------------------------------------|
E|----------3-------1-------3---------------------------------------------|
            *
Chorus
e|---------------------------------------------------------------------------|
B|---------------------------------------------------------------------------|
G|---------------------------------------------------------------------------|
D|--7-----5------7-----3-----5-----------------------------------------------|
A|--7-x8--5-x8---7-x8--3-x8--5-x16-------------------------------------------|
E|--5-----3------5-----1-----3-----------------------------------------------|

Outro
e|-----------|  -------------|    -------------|
B|-----------|  -------------|    -------------|
G|-----------|  -------------|    ----------5--|
D|-3--5------|  --3--5-------| x3 -7-7-7----5--|
A|-3--5-x16--|  --3--5-x8----|    -7-7-7----3--|
E|-1--3------|  --1--3-------|    -5-5-5-------|

Intro x4 (1st set for guitar 2)
Verse x2
Intro x4 (2nd set for guitar 2)
Verse x2
Chorus x2
Outro
Verse x2 (Start on the G [*] and end on an extra C)
Tap to rate this tab
# A B C D E F G H I J K L M N O P Q R S T U V W X Y Z