Song name
# A B C D E F G H I J K L M N O P Q R S T U V W X Y Z

Off With Their Heads - Jackie Lee tab

Jackie Lee

Intro
e|-------------------------------------------------------------------------|
B|-------------------------------------------------------------------------|
G|-9--9-9-9-9---9-9-9-s-11-11-11----------4-6-4-2---1-1--------------------| 
D|-7--7-7-7-7---7-7-7-s-9--9--9---x2------2-4-2-2---2-2--------------------|
A|-7--7-7-7-7---7-7-7-s-9--9--9-----------2-4-2-0---2-2--------------------|
E|--------------------------------------------------0-0--------------------|

Verse One
e|------------------------------------------------------------------------------------|
B|------------------------------------------------------------------------------------|
G|--------7-------------1-1-----------------------------------------------------------|
D|--7-----7-x6---7------2-2-----------------------------------------------------------|
A|--7-x12-5------7-x4---2-2-----------------------------------------------------------|
E|--5------------5------0-0-----------------------------------------------------------|
  |===================|(Palm mute after First note)

Verse Two
e|-------------------------------------|   -----------------------------------------|     -----|
B|-------------------------------------|   -----------------------------------------|     -----|
G|---------7-------9-------1-1---------|   ------1-1--------1-1---7---------1-1-----|     -----|
D|--7------7-x12---9-x8----2-2---------|x2 -7----2-2---7----2-2---7-x8-9----2-2-----| x2  -7---|
A|--7-x24--5-------7-------2-2---------|   -7-x4-2-2---7-x4-2-2---5----9-x8-2-2-----|     -7---|
E|--5----------------------0-0---------|   -5----0-0---5----0-0--------7----0-0-----|     -5---|


Outro
e|-----------------------------------| 
B|-----------------------------------|  
G|-14-------13------14------13----14-|  
D|-12-x24---11-x8---12-x24--11-x4-12-|  
A|-12-------11------12------11----12-|  
E|-----------------------------------|  

-----------------------------------------------|     ------------|
-----------------------------------------------|     ------------|
--13----14-----13----14-----13----11----16-----|     -13----14---|
--11-x2-12-x4--11-x2-12-x4--11-x2-11-x8-14-x4--| x2  -11-x2-12---| x4
--11----12-----11----12-----11----9-----14-----|     -11----12---|
-----------------------------------------------|     ------------|

Intro x2
Verse One x2
Intro x2
Verse One x2
Verse Two 
Break*
Verse One
Outro(Guitar 2 does Verse Two and ends with E E A x4)
Tap to rate this tab
# A B C D E F G H I J K L M N O P Q R S T U V W X Y Z