Song name
# A B C D E F G H I J K L M N O P Q R S T U V W X Y Z

Off With Their Heads - Jackie Lee tab

-------------------------------------------------------------------------------
                       JACKIE LEE - Off With Their Heads
-------------------------------------------------------------------------------
Tabbed by: Tyler Hoock
E-mail: tjhoock@gmail.com

Tuning: EADGBE

INTRO (Repeat 2x)

Lead

e|----------------------------------------------------------------------------|
B|----------------------------------------------------------------------------|
G|9~-9-9-9-9~-9-9-9-9/11~-11-11\9-9~-9-9-9-9/11~-11-11\9-9~-9-9\4-4-6-4-2-----|
D|------------------------------------------------------------------------2-2-|
A|----------------------------------------------------------------------------|
E|----------------------------------------------------------------------------|

Rhythm                                                                         

e|-------------------0--0-0-0----------0--0-0-0----------------------|
B|-------------------3--3-3-3----------3--3-3-3----------------------|
G|-2--2-2-2-2--2-2-2-2--2-2-2-2--2-2-2-2--2-2-2-2--2-2-2-------2-----|  
D|-2--2-2-2-2--2-2-2-0--0-0-0-2--2-2-2-0--0-0-0-2--2-2-2-2-2-2-2-2-2-|
A|-0--0-0-0-0--0-0-0----------0--0-0-0----------0--0-0-0-2-2-2-0-2-2-|
E|-------------------------------------------------------0-0-0---0-0-|


VERSE 

A
Drunk in a waiting room, I can't fall asleep
        D                           A  E
Without knowing how you're gonna to be
A
Think about what you have, it isn't that bad
D                         A  E
Sometimes it's so hard to see


(Repeat Intro 2x)


A
High in a waiting room, I can't fall asleep
         D                        A  E
It's not funny how things came to me
A
Thought about what you had, it wasn't half bad
D                         A  E
Sometimes it's so hard to see

   A
My time spent in hospitals makes it seem impossible
   D                               E
To ever walk back through that door
       A
You've got so much more to do, I'd trade it all with you
D                      E           A  
I'm just a drug addict and nothing more

(Repeat 2x)
e|-------------------------------------0--0-0-0-0-0-0-0-0--------------|
B|-------------------------------------3--3-3-3-3-3-3-3-3--------------|
G|-----2--2-2-2-2------2--2-2-2-2------2--2-2-2-2-2-2-2-2-4--4-4-4-4-4-|
D|-2-2-2--2-2-2-2--2-2-2--2-2-2-2--2-2-0--0-0-0-0-0-0-0-0-4--4-4-4-4-4-|
A|-2-2-0--0-0-0-0--2-2-0--0-0-0-0--2-2--------------------2--2-2-2-2-2-|
E|-0-0-------------0-0-------------0-0---------------------------------|

(Don't Repeat)
e|-------|
B|-------|
G|-----2-|
D|-2-2-2-|
A|-2-2-0-|
E|-0-0---|


My time spent in hospitals makes it seem impossible

To ever walk back through that door
       A
You've got so much more to do, I'd trade it all with you
D                           E
I'm just a dumb fuck passed out on some floor
   A
My time spent in hospitals makes it seem impossible
   D                               E
To ever walk back through that door
       A
You've got so much more to do, I'd trade it all with you
D                      E           A
I'm just a drug addict and nothing more

(Repeat 2x)
e|-------------------------------------0--0-0-0-0-0-0-0-0--------------|
B|-------------------------------------3--3-3-3-3-3-3-3-3--------------|
G|-----2--2-2-2-2------2--2-2-2-2------2--2-2-2-2-2-2-2-2-4--4-4-4-4-4-|
D|-2-2-2--2-2-2-2--2-2-2--2-2-2-2--2-2-0--0-0-0-0-0-0-0-0-4--4-4-4-4-4-|
A|-2-2-0--0-0-0-0--2-2-0--0-0-0-0--2-2--------------------2--2-2-2-2-2-|
E|-0-0-------------0-0-------------0-0---------------------------------|

(Repeat 4x)
e|-------|
B|-------|
G|-----2-|
D|-2-2-2-|
A|-2-2-0-|
E|-0-0---|

************************************

| /   slide up
| \   slide down
| H   hammer-on
| p   pull-off
| ~   vibrato
| +   harmonic
| x   Mute note
| B   Bend
| pb  Pre-bend
| br  Bend release
| pbr Pre-bend release
| brb Bend release bend

************************************
Tap to rate this tab
 
# A B C D E F G H I J K L M N O P Q R S T U V W X Y Z