Song name
# A B C D E F G H I J K L M N O P Q R S T U V W X Y Z

Off With Their Heads - Jackie Lee chords

Highlighted       Show chord diagrams
-------------------------------------------------------------------------------
                       JACKIE LEE - Off With Their Heads
-------------------------------------------------------------------------------
Tabbed by: Tyler Hoock
E-mail: tjhoock@gmail.com

Tuning: EADGBE

INTRO (Repeat 2x)

Lead

e|----------------------------------------------------------------------------|
B|----------------------------------------------------------------------------|
G|9--9-9-9-9--9-9-9-9/11--11-11\9-9--9-9-9-9/11--11-11\9-9--9-9\4-4-6-4-2-----|
D|x--x-x-x-x--x-x-x-x-x----x--x-x-x--x-x-x-x-x----x--x-x-x--x-x-x-x-x-x-2-2-2-|
A|7--7-7-7-7--7-7-7-7/9----9--9\7-7--7-7-7-7/9----9--9\7-7--7-7\2-2-4-2-0-2-2-|
E|------------------------------------------------------------------------0-0-|

Rhythm                                                                         

e|-------------------------------------------------------------------|
B|-------------------------------------------------------------------|
G|-2--2-2-2-2--2-2-2-4--4-4-4-2--2-2-2-4--4-4-4-2--2-2-2-------2-----|  
D|-2--2-2-2-2--2-2-2-4--4-4-4-2--2-2-2-4--4-4-4-2--2-2-2-2-2-2-2-2-2-|
A|-0--0-0-0-0--0-0-0-2--2-2-2-0--0-0-0-2--2-2-2-0--0-0-0-2-2-2-0-2-2-|
E|-------------------------------------------------------0-0-0---0-0-|


VERSE 

A5
Drunk in a waiting room, I can't fall asleep
        D5                       A5 E5
Without knowing how you're gonna be
A5
Think about what you have, it isn't that bad
D5                        A5 E5
Sometimes it's so hard to see


(Repeat Intro 2x)


A5
High in a waiting room, I can't fall asleep
         D5                       A5  E5
It's not funny how things came to me
A5
Thought about what you had, it wasn't half bad
D5                        A5 E5
Sometimes it's so hard to see

   A5
My time spent in hospitals makes it seem impossible
   D5                              E5
To ever walk back through that door
       A5
You've got so much more to do, I'd trade it all with you
D5                     E5          A5  
I'm just a drug addict and nothing more

(Repeat 2x)
e|-------------------------------------2--2-2-2-2-2-2-2-2--------------|
B|-------------------------------------3--3-3-3-3-3-3-3-3--------------|
G|-----2--2-2-2-2------2--2-2-2-2------2--2-2-2-2-2-2-2-2-4--4-4-4-4-4-|
D|-2-2-2--2-2-2-2--2-2-2--2-2-2-2--2-2-0--0-0-0-0-0-0-0-0-4--4-4-4-4-4-|
A|-2-2-0--0-0-0-0--2-2-0--0-0-0-0--2-2--------------------2--2-2-2-2-2-|
E|-0-0-------------0-0-------------0-0---------------------------------|

(Don't Repeat)
e|-------|
B|-------|
G|-----2-|
D|-2-2-2-|
A|-2-2-0-|
E|-0-0---|


My time spent in hospitals makes it seem impossible

To ever walk back through that door
       A5
You've got so much more to do, I'd trade it all with you
D5                          E5
I'm just a dumb fuck passed out on some floor
   A5
My time spent in hospitals makes it seem impossible
   D5                              E5
To ever walk back through that door
       A5
You've got so much more to do, I'd trade it all with you
D5                     E5          A5
I'm just a drug addict and nothing more

(Repeat 2x)
e|-------------------------------------2--2-2-2-2-2-2-2-2--------------|
B|-------------------------------------3--3-3-3-3-3-3-3-3--------------|
G|-----2--2-2-2-2------2--2-2-2-2------2--2-2-2-2-2-2-2-2-4--4-4-4-4-4-|
D|-2-2-2--2-2-2-2--2-2-2--2-2-2-2--2-2-0--0-0-0-0-0-0-0-0-4--4-4-4-4-4-|
A|-2-2-0--0-0-0-0--2-2-0--0-0-0-0--2-2--------------------2--2-2-2-2-2-|
E|-0-0-------------0-0-------------0-0---------------------------------|

(Repeat 4x)
e|-------|
B|-------|
G|-----2-|
D|-2-2-2-|
A|-2-2-0-|
E|-0-0---|

************************************

| /   slide up
| \   slide down
| H   hammer-on
| p   pull-off
| ~   vibrato
| +   harmonic
| x   Mute note
| B   Bend
| pb  Pre-bend
| br  Bend release
| pbr Pre-bend release
| brb Bend release bend

************************************
Tap to rate this tab
# A B C D E F G H I J K L M N O P Q R S T U V W X Y Z