Song name
# A B C D E F G H I J K L M N O P Q R S T U V W X Y Z

Off - Darkness tab

Song: "Darkness"
Album: First Four EPs
Artist: OFF!

Tuning: standard

e|------------------------------------------------------------|
B|------------------------------------------------------------|
G|------------------------------9------------------------11-9-|
D|-11-11-11-11-11-11-11-11-11-9-9-9--9-9-9-9-9-9-9-9-9-9-11-9-|
A|-11-11-11-11-11-11-11-11-11-9-7-9--9-9-9-9-9-9-9-9-9-9--9-7-|
E|--9--9--9--9--9--9--9--9--9-7---7--7-7-7-7-7-7-7-7-7-7------| x3

e|------------------------------------------------------------|
B|------------------------------------------------------------|
G|-------7-----------9----------------------------------------|
D|-7-7-7-7--7--9-9-9-9-9--11-9-9-11--11--11-9-9-11--11--------|
A|-7-7-7-5--7--9-9-9-7-9--11-9-9-11--11--11-9-9-11--11--------|
E|-5-5-5----5--7-7-7---7---9-7-7--9---9---9-7-7--9---9--------| x1

e|------------------------------------------------------------|
B|------------------------------------------------------------|
G|-------7-----------9----------------------------------------|
D|-7-7-7-7--7--9-9-9-9-9--------------------------------------|
A|-7-7-7-5--7--9-9-9-7-9--------------------------------------|
E|-5-5-5----5--7-7-7---7--------------------------------------| x1

e|------------------------------------------------------------|
B|------------------------------------------------------------|
G|------------------------------9------------------------11-9-|
D|-11-11-11-11-11-11-11-11-11-9-9-9--9-9-9-9-9-9-9-9-9-9-11-9-|
A|-11-11-11-11-11-11-11-11-11-9-7-9--9-9-9-9-9-9-9-9-9-9--9-7-|
E|--9--9--9--9--9--9--9--9--9-7---7--7-7-7-7-7-7-7-7-7-7------| x2

e|------------------------------------------------------------|
B|------------------------------------------------------------|
G|-------7-----------9----------------------------------------|
D|-7-7-7-7--7--9-9-9-9-9--11-9-9-11--11--11-9-9-11--11--------|
A|-7-7-7-5--7--9-9-9-7-9--11-9-9-11--11--11-9-9-11--11--------|
E|-5-5-5----5--7-7-7---7---9-7-7--9---9---9-7-7--9---9--------| x1

e|------------------------------------------------------------|
B|------------------------------------------------------------|
G|-------7-----------9----------------------------------------|
D|-7-7-7-7--7--9-9-9-9-9-11-11-11-11-11-11-11-11-11-----------|
A|-7-7-7-5--7--9-9-9-7-9-11-11-11-11-11-11-11-11-11-----------|
E|-5-5-5----5--7-7-7---7--9--9--9--9--9--9--9--9--9-----------| x1
Tap to rate this tab
# A B C D E F G H I J K L M N O P Q R S T U V W X Y Z