Song name
# A B C D E F G H I J K L M N O P Q R S T U V W X Y Z

Off - Black Thoughts tab

Song: "Black Thoughts"
Album: First Four EPs
Artist: OFF!

Tuning: standard

e|----------------------------------------------|
B|----------------------------------------------|
G|---11-----------------------------------------|
D|-9-11-13--13-13-13-13-13-13-13-13-13-13-13-11-|
A|-9--9-13--13-13-13-13-13-13-13-13-13-13-13-11-|
E|-7----11--11-11-11-11-11-11-11-11-11-11-11--9-| x2

e|----------------------------------------------|
B|----------------------------------------------|
G|-7----------------2--2-2-2--------------------|
D|-7-5-6--6-6-6-2-3-2--2-2-2--------------------|
A|-5-5-6--6-6-6-2-3-0--0-0-0--------------------|
E|---3-4--4-4-4-0-1-----------------------------| x3

e|----------------------------------------------|
B|----------------------------------------------|
G|-------------------3-3-3-2-8------------------|
D|-5-5-5-6-6-6-2-2-2-3-3-3-2-8------------------|
A|-5-5-5-6-6-6-2-2-2-1-1-1-0-6------------------|
E|-3-3-3-4-4-4-0-0-0----------------------------| x1
PM ...........................

e|----------------------------------------------|
B|----------------------------------------------|
G|-7----------------2--2-2-2--------------------|
D|-7-5-6--6-6-6-2-3-2--2-2-2--------------------|
A|-5-5-6--6-6-6-2-3-0--0-0-0--------------------|
E|---3-4--4-4-4-0-1-----------------------------| x3

e|----------------------------------------------|
B|----------------------------------------------|
G|-------------------3-3-3-2-8------------------|
D|-5-5-5-6-6-6-2-2-2-3-3-3-2-8------------------|
A|-5-5-5-6-6-6-2-2-2-1-1-1-0-6------------------|
E|-3-3-3-4-4-4-0-0-0----------------------------| x2
PM ...........................

e|----------------------------------------------|
B|----------------------------------------------|
G|-------------2--------------------------------|
D|-5-5-5-6-6-6-2--------------------------------|
A|-5-5-5-6-6-6-0--------------------------------|
E|-3-3-3-4-4-4----------------------------------| x2
PM ...........

e|----------------------------------------------|
B|----------------------------------------------|
G|---11-----------------------------------------|
D|-9-11-13--13-13-13-13-13-13-13-13-13-13-13-11-|
A|-9--9-13--13-13-13-13-13-13-13-13-13-13-13-11-|
E|-7----11--11-11-11-11-11-11-11-11-11-11-11--9-| x3

e|----------------------------------------------|
B|----------------------------------------------|
G|-7----------------2---------------------------|
D|-7-5-6--6-6-6-2-3-2---------------------------|
A|-5-5-6--6-6-6-2-3-0---------------------------|
E|---3-4--4-4-4-0-1-----------------------------| x1
Tap to rate this tab
# A B C D E F G H I J K L M N O P Q R S T U V W X Y Z