Song name
# A B C D E F G H I J K L M N O P Q R S T U V W X Y Z

Offbeatz - Underground Flight tab

The Offbeatz
"Underground Flight"


Main Riff
|-------------------|-------------------|------------------|----------------|
|-------------------|-------------------|------------------|----------------|
|-------------------|-------------------|------------------|----------------|
|--2-----2-----2----|--5-----5-----5----|------------------|----------------|
|--0-0-0-0-0-0-0-0--|--3-3-3-3-3-3-3-3--|--5-----5-----5---|-7-----7-----7--|
|-------------------|-------------------|--3-3-3-3-3-3-3-3-|-5-5-5-5-5-5-5--|Theres a solo at the end of the song. Its completely improvised, but 
heres the scale that the guitarist uses.

|---12-------15------------|
|---12-------15------------|
|---12---14----------------|
|---12---14----------------|
|---12---14----------------|
|---12-------15------------|


That's it. Any questions or comments email me at PeaceFrogg@aol.com peace.

-nick-
Tap to rate this tab
# A B C D E F G H I J K L M N O P Q R S T U V W X Y Z