Song name
# A B C D E F G H I J K L M N O P Q R S T U V W X Y Z

Officer Negative - Bobby And Susie tab

----------------------------------------------------------------------------
                         BOBBY AND SUSIE - Officer Negative
----------------------------------------------------------------------------
                                                  

e|--------------------------------------------------------------------|
B|--------------------------------------------------------------------|
G|-----8-8-8-8-8-7-7-------7-7-7-7-7-8-8------------------------------|
D|-8-8-8-8-8-8-8-7-7-8-8-8-7-7-7-7-7-8-8------------------------------|
A|-8-8-6-6-6-6-6-5-5-8-8-8-5-5-5-5-5-6-6------------------------------|
E|-6-6---------------6-6-6--------------------------------------------|
Tap to rate this tab
# A B C D E F G H I J K L M N O P Q R S T U V W X Y Z