Song name
# A B C D E F G H I J K L M N O P Q R S T U V W X Y Z

Officer Roseland - Spiders Lead Guitar Only tab

e|--X4---|---X3---|--1-and--till-end--|
B|-------|--------|-------------------|
G|----11-|-----13-|----9/11-----9-----| INTRO
D|-------|--------|-------------------|
A|--9----|--11----|--7/9-------7------|
E|-------|--------|-------------------|

Chorus
|----------------------------------------------------------------|
|----------------------------------------------------------------|
|--------------9---9-----11---11------13----13------14----13---9-|
|----------------------------------------------------------------|
|------7-----7---7-----9----9------11----11------12----11----7---|
|--7-9---0-------------------------------------------------------|

|--------------------------|
|--------------------------|
|---9/---11---11---11/--9--|
|--------------------------|
|--7/----9----9----9/---7--|
|--------------------------|
                                 A chord
|---------------------------------------0--|
|----------------------------------2----0--|
|----9---9---8---8---4---4-----4---2-------|
|----------------------------------2-------|
|--7---7---6---6---2---2-----2-------------|   then back to the chorus
|------------------------------------------|

|--------------------------------------------------------|
|--2-4-4-2-4-4-2-2-4-2-2-4-2-4-2-4-4 ect. 666666--888888-| then back to chorus
|--------------------------------------------------------|
|--------------------------------------------------------|
|--------------------------------------------------------|
|--------------------------------------------------------|

pre chorus
A chord x4
|-------------|
|--2-2--------|
|--2-2--------|
|--2-2--------|
|--0-0--------|
|-------------|

come in after first 2 for intro
Intro x2 Chorus x2 Intro x4 Chorus x2 pre solo-- solo Chorus x2 end
Tap to rate this tab
 
# A B C D E F G H I J K L M N O P Q R S T U V W X Y Z