Song name
# A B C D E F G H I J K L M N O P Q R S T U V W X Y Z

Officer Roseland - Cracked Harmonies tab

Cracked Harmonies

This is the lead guitar, solo isnt exactly like CD, changes everytime i play it live 
but heres the jist of it. Listen to the cd for the timings

Officerroseland.com ---OR mystimuluspackage.org +_+_+_ download the whole Stimulus 
album for free

|---------|
|---------|
|--3b4--0-|
|---------|
|---------|
|---------|

|----------------------------------------|
|----------------11~---------------------|
|--12---12-10-x6----------12-10--x3-10~--|
|----------------------------------------|
|----------------------------------------|
|----------------------------------------|

           2or 3 times    2 or 3 times
|------------0---------------3-|
|------------3---------------3-|
|------------0---------------0-|
|------------0---------------0-|
|--6-5---3---3-----6-5-------0-|
|------6---------------6-3---3-|


|---------------------------------------------------------------------------|
|----------------11~--------------------------------------------------------|
|--12---12-10-x6----------12-10--x3-10~--13b-(15)-13-13-13-13-(release)-11~-|
|---------------------------------------------------------------------------|
|---------------------------------------------------------------------------|
|---------------------------------------------------------------------------|

  1 2 3   +     4  1 2 3    4     few times 1 +
|---------------------------------------------------|
|---------------------------------------------------|
|----5-----7-----8---------13------12--------10-----|
|---------------------------------------------------|    X3
|--3-----5-----6--------11------10---------8--------|
|---------------------------------------------------|


  1 2 3   +     4  1 2 3    4     few times 1 + *then play a few times till
|-----------------------------------------------|
|-----------------------------------------------|
|----5-----7-----8---------13------12--------10-|
|-----------------------------------------------|
|--3-----5-----6--------11------10---------8----|
|-----------------------------------------------|

   1+ A=rest   slide 1 beat   1+ A      slide 1 beat
|-----------------------------------------------|
|--------------------------------3--------------|
|--------5---------3------------3-----------3---|
|------5---------3-------------3-----------3----|   Then Repeats
|----5---------3--------------1-----------3-----|
|--3---------1---------------------------1------|


   1+ 2+ 3+   4+ (quick rest)
e|--3---3---3---3---------------------------------------|
B|----3---3---3---3------4X then end on----------3------|
G|--------------------------------------------------5B--|(7)  HOLD

THEN SOLO


|---------------------------------------------------------------------|
|---------------------------------------------------------------------|
|------5b7--5-5-5----5(b)-3-----------3-------------------------------|
|----------------------------5~-----------5--3------------3------3--5-|
|------------------------------------------------5------------5-------|
|---------------------------------------------------------------------|

|------------------------------------|
|------------------------------------|
|--3-p0---5-p0- X2-------------------|
|------------------------------------|
|-----------------------3b4--3---1/3-|

                                 Chuck berry thing

|----------------------------------------------|
|--------------------------------3------3------|
|----------------3-5b7-5--3~------5b7----5b7---|
|------------3-5-------------------------------|
|--3-3-5-6-------------------------------------|
|----------------------------------------------|

|--------------------------------------------------------|
|--13b15--13-13-13---13p11---13-11-13-11---13b15--11-----|
|----------------------------------------------------12~-|
|--------------------------------------------------------|
|--------------------------------------------------------|
|--------------------------------------------------------|


                                            while bending
                                                           trem pick
|--------------------------------------------------------15----------\19--|
|--11----------------------11-13--11-13--13-11----13b15-------------------|
|------12-10----10-12-----------------------------------------------------|
|------------12-----------------------------------------------------------|
|-------------------------------------------------------------------------|
|-------------------------------------------------------------------------|


|------------------------------------|
|--10--------10----13b15--13-11------|
|-----12b14--10-----------------12~--|
|------------------------------------|
|------------------------------------|
|------------------------------------|
Tap to rate this tab
 
# A B C D E F G H I J K L M N O P Q R S T U V W X Y Z