Song name
# A B C D E F G H I J K L M N O P Q R S T U V W X Y Z

Offspring - Trust In You tab

Help us improve GuitareTab! Take a short survey!
--------------------------------------------------------------------
              The Offspring - Trust In You
--------------------------------------------------------------------
Tabbed by: Clayton Pennington
Email: offspring_punk08@hotmail.com

Tuning: Standard

Introduction Chord
e|-------------|
B|-------------|
G|-10~~~~~~----|
D|-10~~~~~~----|
A|-8-~~~~~~----|
E|-------------|

Verse x2
e|--------------------------------------------------|
B|--------------------------------------------------|
G|---1010-1010--------------8-8--8-8----------------|
D|---1010-1010-5/6-6--6-6--68-8--8-8--8/1010-1010---|
A|---8-8--8-8--5/6-6--6-6--66-6--6-6--8/1010-1010---|
E|-------------3/4-4--4-4--4----------6/8-8--8-8----|

Play Verse Palm Muted x2

Chorus x2
e|------------------------------------------------------------|
B|------------------------------------------------------------|
G|-1010--8-1010-8-1010-8-1010--6-6--6-6-6--6-6-6--6-6-6--8----|
D|-1010--8-1010-8-1010-8-1010--6-6--6-6-6--6-6-6--6-6-6--8----|
A|-8-8---8-8-8--8-8-8--8-8-8---4-4--4-4-4--4-4-4--4-4-4--6----|
E|------------------------------------------------------------|

e|------------------------------------------------------------|
B|------------------------------------------------------------|
G|------------------------------8-8--8-8-8--8-8-8--8----------|
D|-6-6--6-6-6--6-6-6--6-6-6--8--8-8--8-8-8--8-8-8--8-8-6------|
A|-6-6--6-6-6--6-6-6--6-6-6--8--6-6--6-6-6--6-6-6--6-8-6------|
E|-4-4--4-4-4--4-4-4--4-4-4--6-----------------------6-4------|

Post Chorus
e|------------------------------------------------------------|
B|------------------------------------------------------------|
G|------------------------------------656-8-10-88-1010--------|
D|-3-3333-6-666--3-3333-8-888--3-3333-656-8-10-88-1010--------|
A|-3-3333-6-666--3-3333-8-888--3-3333-434-6-8--66-8-8---------|
E|-1-1111-4-444--1-1111-6-666--1-1111-------------------------|
     xxxx          xxxx          xxxx

Verse x2
e|------------------------------------------------------------|
B|------------------------------------------------------------|
G|---1010-1010--------------8-8--8-8--------------------------|
D|---1010-1010-5/6-6--6-6--68-8--8-8--8/1010-1010-------------|
A|---8-8--8-8--5/6-6--6-6--66-6--6-6--8/1010-1010-------------|
E|-------------3/4-4--4-4--4----------6/8-8--8-8--------------|

Play Verse Palm Muted x2

Chorus x2
e|------------------------------------------------------------|
B|------------------------------------------------------------|
G|-1010--8-1010-8-1010-8-1010--6-6--6-6-6--6-6-6--6-6-6--8----|
D|-1010--8-1010-8-1010-8-1010--6-6--6-6-6--6-6-6--6-6-6--8----|
A|-8-8---8-8-8--8-8-8--8-8-8---4-4--4-4-4--4-4-4--4-4-4--6----|
E|------------------------------------------------------------|

e|------------------------------------------------------------|
B|------------------------------------------------------------|
G|------------------------------8-8--8-8-8--8-8-8--8----------|
D|-6-6--6-6-6--6-6-6--6-6-6--8--8-8--8-8-8--8-8-8--8-8-6------|
A|-6-6--6-6-6--6-6-6--6-6-6--8--6-6--6-6-6--6-6-6--6-8-6------|
E|-4-4--4-4-4--4-4-4--4-4-4--6-----------------------6-4------|

Post Chorus
e|------------------------------------------------------------|
B|------------------------------------------------------------|
G|------------------------------------656-8-10-88-1010--------|
D|-3-3333-6-666--3-3333-8-888--3-3333-656-8-10-88-1010--------|
A|-3-3333-6-666--3-3333-8-888--3-3333-434-6-8--66-8-8---------|
E|-1-1111-4-444--1-1111-6-666--1-1111-------------------------|
     xxxx          xxxx          xxxx


Solo pt.1 x4
e|--------------------------------------------------|
B|--------------------------------------------------|
G|--------------------------------------------------|
D|-----10/11\10-10/11\10-11/13-11\10-8\6------------|
A|-6/8----------------------------------------------|
E|--------------------------------------------------|

Solo pt.2
e|-------------------------------------------------------------------------|
B|-------------------------------------------------------------------------|
G|-13----13-12-13-15-13----13-12-13-15-13--13--13--13--17--17--15b17-13-12-|
D|----10~---------------11~--------------10--10--11--11--15--15------------|
A|-------------------------------------------------------------------------|
E|-------------------------------------------------------------------------|

Rhythm behind Solo pt. 2
e|-------------------------------------------------------------------------|
B|-------------------------------------------------------------------------|
G|------------------6666666666666666----------66666666----------88888888---|
D|-3333333333333333-6666666666666666-33333333-66666666-66666666-88888888---|
A|-3333333333333333-4444444444444444-33333333-44444444-66666666-66666666---|
E|-1111111111111111------------------11111111----------44444444------------|

Chorus x2
e|------------------------------------------------------------|
B|------------------------------------------------------------|
G|-1010--8-1010-8-1010-8-1010--6-6--6-6-6--6-6-6--6-6-6--8----|
D|-1010--8-1010-8-1010-8-1010--6-6--6-6-6--6-6-6--6-6-6--8----|
A|-8-8---8-8-8--8-8-8--8-8-8---4-4--4-4-4--4-4-4--4-4-4--6----|
E|------------------------------------------------------------|

e|------------------------------------------------------------|
B|------------------------------------------------------------|
G|------------------------------8-8--8-8-8--8-8-8--8----------|
D|-6-6--6-6-6--6-6-6--6-6-6--8--8-8--8-8-8--8-8-8--8-8-6------|
A|-6-6--6-6-6--6-6-6--6-6-6--8--6-6--6-6-6--6-6-6--6-8-6------|
E|-4-4--4-4-4--4-4-4--4-4-4--6-----------------------6-4------|

Post Chorus
e|------------------------------------------------------------|
B|------------------------------------------------------------|
G|------------------------------------656-8-10-88-1010--------|
D|-3-3333-6-666--3-3333-8-888--3-3333-656-8-10-88-1010--------|
A|-3-3333-6-666--3-3333-8-888--3-3333-434-6-8--66-8-8---------|
E|-1-1111-4-444--1-1111-6-666--1-1111-------------------------|
     xxxx          xxxx          xxxx

| /  slide up
| \  slide down
| h  hammer-on
| p  pull-off
| ~  let ring
| +  harmonic
| x  Palm Mute
================================================================
Related for Trust In You tab