Song name
# A B C D E F G H I J K L M N O P Q R S T U V W X Y Z

Offspring - Nothingtown tab

----------------------------------------------------------------------------
			                      The Offspring - Nothingtown
----------------------------------------------------------------------------
Tabbed by: Clayton Pennington
Email: offspring_punk08@hotmail.com

Tuning: Standard

Intro (Gradually release palm mute at the end)
e|-------------------------------------------------------------|
B|-------------------------------------------------------------|
G|-9-9\8--8-8\6--6-6\4--4-4\2--2-2/4-4--9-9---9-9-9-9-9-9-999--|
D|-9-9\8--8-8\6--6-6\4--4-4\2--2-2/4-4--9-9---9-9-9-9-9-9-999--|
A|-7-7\6--6-6\4--4-4\2--2-2\0--0-0/2-2--7-7---7-7-7-7-7-7-777--|
E|-------------------------------------------------------------|
                                              x x x
Verse x2 (Gradual release on B chord)
e|-------------------------------------------------------------|
B|-------------------------------------------------------------|
G|-9-9-999\6-6--666--------------------------------------------|
D|-9-9-999\6-6--666-7-7--77/9-9-9-9-9-9-9-9--------------------|
A|-7-7-777\4-4--444-7-7--77/9-9-9-9-9-9-9-9--------------------|
E|------------------5-5--55/7-7-7-7-7-7-7-7--------------------|
                            x x x 
Chorus x2
e|-------------------------------------------------------------|
B|-------------------------------------------------------------|
G|-----------------------9-9\8--8-8\6--6-6\4--4-4--------------|
D|-7-7-7-77-7-9-9-9-99-9-9-9\8--8-8\6--6-6\4--4-4--------------|
A|-7-7-7-77-7-9-9-9-99-9-7-7\6--6-6\4--4-4\2--2-2--------------|
E|-5-5-5-55-5-7-7-7-77-7---------------------------------------|

Chorus cont.
e|-----------------------------------------------------------------|
B|-----------------------------------------------------------------|
G|----------------------------------6-6-4-4------------------------|
D|-7-7-7-77-7-9-9-9-99-9-6-6-6-66-6-6-6-4-4-7-7-7-77-7-9-9-9-99-9--|
A|-7-7-7-77-7-9-9-9-99-9-6-6-6-66-6-4-4-2-2-7-7-7-77-7-9-9-9-99-9--|
E|-5-5-5-55-5-7-7-7-77-7-4-4-4-44-4---------5-5-5-55-5-7-7-7-77-7--|

Break
e|-------------------------------------------------------------|
B|-------------------------------------------------------------|
G|-9-9--999\6-6-6--666/9-9-9--999\4-4-4-4-44-4-----------------|
D|-9-9--999\6-6-6--666/9-9-9--999\4-4-4-4-44-4-----------------|
A|-7-7--777\4-4-4--444/7-7-7--777\2-2-2-2-22-2-----------------|
E|-------------------------------------------------------------|

Verse x2 (Gradual release on B chord)
e|-------------------------------------------------------------|
B|-------------------------------------------------------------|
G|-9-9-999\6-6--666--------------------------------------------|
D|-9-9-999\6-6--666-7-7--77/9-9-9-9-9-9-9-9--------------------|
A|-7-7-777\4-4--444-7-7--77/9-9-9-9-9-9-9-9--------------------|
E|------------------5-5--55/7-7-7-7-7-7-7-7--------------------|
                            x x x 
Chorus x2
e|-------------------------------------------------------------|
B|-------------------------------------------------------------|
G|-----------------------9-9\8--8-8\6--6-6\4--4-4--------------|
D|-7-7-7-77-7-9-9-9-99-9-9-9\8--8-8\6--6-6\4--4-4--------------|
A|-7-7-7-77-7-9-9-9-99-9-7-7\6--6-6\4--4-4\2--2-2--------------|
E|-5-5-5-55-5-7-7-7-77-7---------------------------------------|

Chorus cont. (Parts in brackets are repeated 3x)
e|-------------------------------------------------------------------|
B|-------------------------------------------------------------------|
G|----------------------------------6-6-4-4--------------------------|
D|-7-7-7-77-7-9-9-9-99-9-6-6-6-66-6-6-6-4-4-(7-7-7-77-7-9-9-9-99-9)--|
A|-7-7-7-77-7-9-9-9-99-9-6-6-6-66-6-4-4-2-2-(7-7-7-77-7-9-9-9-99-9)--|
E|-5-5-5-55-5-7-7-7-77-7-4-4-4-44-4---------(5-5-5-55-5-7-7-7-77-7)--|

Break
e|-------------------------------------------------------------|
B|-------------------------------------------------------------|
G|-9-9--999\6-6-6--666/9-9-9--999\4-4-4-4-44-4-----------------|
D|-9-9--999\6-6-6--666/9-9-9--999\4-4-4-4-44-4-----------------|
A|-7-7--777\4-4-4--444/7-7-7--777\2-2-2-2-22-2-----------------|
E|-------------------------------------------------------------|

Verse (Gradual release on B chord)
e|-------------------------------------------------------------|
B|-------------------------------------------------------------|
G|-9-9-999\6-6--666--------------------------------------------|
D|-9-9-999\6-6--666-7-7--77/9-9-9-9-9-9-9-9--------------------|
A|-7-7-777\4-4--444-7-7--77/9-9-9-9-9-9-9-9--------------------|
E|------------------5-5--55/7-7-7-7-7-7-7-7--------------------|
                            x x x 
Solo
e|-----------------------9~------------------------------------|
B|-7/9-99-9-9-10-9-12-13-9~-9----------------------------------|
G|-7/9-99-9-9-9--9-9--13------11-9-----------------------------|
D|---------------------------------11-1111-11~-----------------|
A|-------------------------------------------------------------|
E|-------------------------------------------------------------|

e|----------------------------------------------------------------------|
B|-9h10-10101010(x4)--11h12-12121212(x2)---13(x3)14(x3)15(x3)16(x3)-17--|
G|-9-9--9-9-9-9-------11-11-11111111-------12----13----14----15-----16--|
D|----------------------------------------------------------------------|
A|----------------------------------------------------------------------|
E|----------------------------------------------------------------------|

Bridge Gtr. 1
e|-------------------------------------------------------------------|
B|---------------------------------10101010101010101212121212121212--|
G|-9-9-9-9-9-9-9-9-6-6-6-6-6-6-6-6-9-9-9-9-9-9-9-9-1111111111111111--|
D|-9-9-9-9-9-9-9-9-6-6-6-6-6-6-6-6-7-7-7-7-7-7-7-7-9-9-9-9-9-9-9-9---|
A|-7-7-7-7-7-7-7-7-4-4-4-4-4-4-4-4-----------------------------------|
E|-------------------------------------------------------------------|

Bridge Gtr. 2
e|-------------------------------------------------------------------|
B|-------------------------------------------------------------------|
G|-99-99--66-66------------------------------------------------------|
D|-99-99--66-66--77-77--9-9-9-9-9-9-9-9------------------------------|
A|-77-77--44-44--77-77--9-9-9-9-9-9-9-9------------------------------|
E|---------------55-55--7-7-7-7-7-7-7-7------------------------------|

Chorus x2
e|-------------------------------------------------------------|
B|-------------------------------------------------------------|
G|-----------------------9-9\8--8-8\6--6-6\4--4-4--------------|
D|-7-7-7-77-7-9-9-9-99-9-9-9\8--8-8\6--6-6\4--4-4--------------|
A|-7-7-7-77-7-9-9-9-99-9-7-7\6--6-6\4--4-4\2--2-2--------------|
E|-5-5-5-55-5-7-7-7-77-7---------------------------------------|

Chorus cont. (Parts in brackets are repeated 3x)
e|-------------------------------------------------------------------|
B|-------------------------------------------------------------------|
G|----------------------------------6-6-4-4--------------------------|
D|-7-7-7-77-7-9-9-9-99-9-6-6-6-66-6-6-6-4-4-(7-7-7-77-7-9-9-9-99-9)--|
A|-7-7-7-77-7-9-9-9-99-9-6-6-6-66-6-4-4-2-2-(7-7-7-77-7-9-9-9-99-9)--|
E|-5-5-5-55-5-7-7-7-77-7-4-4-4-44-4---------(5-5-5-55-5-7-7-7-77-7)--|

Outro x3
e|--------------------------------------------------|
B|--------------------------------------------------|
G|-9-9\8--8-8\6--6-6\4--4-4\2--2-2/4-4--9-9-9-99-9--|
D|-9-9\8--8-8\6--6-6\4--4-4\2--2-2/4-4--9-9-9-99-9--|
A|-7-7\6--6-6\4--4-4\2--2-2\0--0-0/2-2--7-7-7-77-7--|
E|--------------------------------------------------|

e|-------------------------------------------------------------|
B|-------------------------------------------------------------|
G|-9~---8~---6~---4~---2~---4~---------------------------------|
D|-9~---8~---6~---4~---2~---4~---2~~~~-------------------------|
A|-7~---6~---4~---2~---0~---2~---2~~~~-------------------------|
E|-------------------------------0~~~~-------------------------|


| /  slide up
| \  slide down
| h  hammer-on
| p  pull-off
| ~  Let Ring
| +  harmonic
| x  Palm Mute
============================================================================
Tap to rate this tab
 
# A B C D E F G H I J K L M N O P Q R S T U V W X Y Z