Guitaretab - guitar tabs
Song name
# A B C D E F G H I J K L M N O P Q R S T U V W X Y Z

Offspring - Lets Hear It For Rock Bottom tab

EXCELENTE ROLA DE SU NUEVO DISCO, THE OFFSPRING      

INTRO
e|----------------------------------------------|
B|----------------------------------------------|
G|----------------------------------------------|
D|-7-x-7-7-x-------------7-x-7-7-x-------7-7----| x2
A|-5-x-5-5-x-7-7-x-5-5-x-5-x-5-5-x-7-7-x-5-5----|
E|-----------5-5-x-3-3-x-----------5-5-x--------|

e|-----3-----3------5------5------7------7------7------7---|
B|-----3-----3------5------5------7------7------7------7---|
G|-----4-----4------6------6------7------7------7------7---|
D|-5-5----5-5---7-7----7-7----9-9----9-9----9-9----9-9-----|
A|---------------------------------------------------------|
E|---------------------------------------------------------|

VERSO
e|-----3-----3------5------5------7------7------7------7---|
B|-----3-----3------5------5------7------7------7------7---|
G|-----4-----4------6------6------7------7------7------7---|
D|-5-5----5-5---7-7----7-7----9-9----9-9----9-9----9-9-----| x3
A|---------------------------------------------------------|
E|---------------------------------------------------------|
          In my perfect isolation
          I can stay here for a while
          antidotes and revelations

e|-----3-----3------5------5-------------------------------|
B|-----3-----3------5------5-------------------------------|
G|-----4-----4------6------6-------------------------------|
D|-5-5----5-5---7-7----7-7----7-7-7-7-7-7-7-7--------------|
A|----------------------------5-5-5-5-5-5-5-5--7-7-7-7-7---|
E|---------------------------------------------5-5-5-5-5---|
          just extend my own exile

CORO
e|----------------------------------------------|
B|----------------------------------------------|
G|----------------------------------------------|
D|-7-x-7-7-x-------------7-x-7-7-x-------7-7----| x2
A|-5-x-5-5-x-7-7-x-5-5-x-5-x-5-5-x-7-7-x-5-5----|
E|-----------5-5-x-3-3-x-----------5-5-x--------|
  wasting away the world's right in front of me, funny you should say that it's all in my head
  wasting away we're hitting rock bottom, and going down in flames well it's not that bad

VERSO
e|-----3-----3------5------5------7------7------7------7---|
B|-----3-----3------5------5------7------7------7------7---|
G|-----4-----4------6------6------7------7------7------7---|
D|-5-5----5-5---7-7----7-7----9-9----9-9----9-9----9-9-----| x3
A|---------------------------------------------------------|
E|---------------------------------------------------------|
         with my lack of observation
         I can stay in here for days
         could you find my motivation

e|-----3-----3------5------5-------------------------------|
B|-----3-----3------5------5-------------------------------|
G|-----4-----4------6------6-------------------------------|
D|-5-5----5-5---7-7----7-7----7-7-7-7-7-7-7-7--------------|
A|----------------------------5-5-5-5-5-5-5-5--7-7-7-7-7---|
E|---------------------------------------------5-5-5-5-5---|
         I can't see it through this haze
[ Tab from: http://www.guitaretab.com/o/offspring/111544.html ]
CORO (repetir 2 veces)
e|----------------------------------------------|
B|----------------------------------------------|
G|----------------------------------------------|
D|-7-x-7-7-x-------------7-x-7-7-x-------7-7----| x2
A|-5-x-5-5-x-7-7-x-5-5-x-5-x-5-5-x-7-7-x-5-5----|
E|-----------5-5-x-3-3-x-----------5-5-x--------|
  wasting away the world's right in front of me, funny you should say that it's all in my head
  wasting away we're hitting rock bottom, and going down in flames well it's not that bad



P.M.
e|-----|
B|-----|
G|-----|
D|--7--|
A|--5--| x16
E|-----|   
wasting all my days

P.M.
e|-----|
B|-----|
G|-----|
D|-----|
A|--7--| x16
E|--5--|
what would Ivan say

P.M.
e|-----|
B|-----|
G|-----|
D|-----|
A|--5--| x16
E|--3--|   
wasting all my days   

P.M.
e|-----|
B|-----|
G|-----|
D|-----|
A|--7--| x16
E|--5--|
what would Ivan say

CORO 
e|--------------------------------------|
B|--------------------------------------|
G|--------------------------------------|
D|--7-----------------------------------|
A|--5-(x16)--7-(x16)--5-(x16)--7--(x16)-| 
E|-----------5--------3--------5--------|
   wasting away we're hitting rock bottom, call me anyway cause I got two friends
   wasting away we're going down together and all in all it's not so bad

e|--3-------------5-------------7-------------7--|
B|--3-------------5-------------7---------------7|
G|--4-------------6-------------7-----------7----|
D|--5-------------7-------------9----------------|
A|-----------------------------------------------|
E|-----------------------------------------------|
   all i all it's not so bad

e|--3-------------5-------------7----------------|
B|--3-------------5-------------7----------------|
G|--4-------------6-------------7----------------|
D|--5-------------7-------------9----------------|
A|-----------------------------------------------|
E|-----------------------------------------------|

SOLO
e|------------------------------------------------------------|
B|------------------------------------------------------------|
G|------------------------------------------------------------|
D|--9--9-9-9-5-5---9--9-9-9-7-7---9--9-9-9-------9--9-9-9-----| x4
A|----------------------------------------9-9------------9-9--|
E|------------------------------------------------------------|

esto se toca durante el solo
e|--3----3---------5----5------------7----7----7----7-|
B|--3----3---------5----5------------7----7----7----7-|
G|--4----4---------6----6------------7----7----7----7-|
D|--5----5---------7----7------------9----9----9----9-| x4
A|----------------------------------------------------|
E|----------------------------------------------------|



P.M.................................
e|----------------------------------|
B|----------------------------------|
G|----------------------------------|
D|----------------------------------|
A|--5-(x8)--7-(x8)------------------| x3
E|--3-------5-----------------------|
   It's hard to know
   where to start and where to go
   I will never say this words 

e|--------------------------------------------|
B|--------------------------------------------|
G|--------------------------------------------|
D|--7-7-7-7-7-7-7-7---------------------------|
A|--5-5-5-5-5-5-5-5--7-7-7-7-7----------------|
E|-------------------5-5-5-5-5----------------|
   again

CORO
e|----------------------------------------------|
B|----------------------------------------------|
G|----------------------------------------------|
D|-7-x-7-7-x-------------7-x-7-7-x-------7-7----| x2
A|-5-x-5-5-x-7-7-x-5-5-x-5-x-5-5-x-7-7-x-5-5----|
E|-----------5-5-x-3-3-x-----------5-5-x--------|
  wasting away the world's right in front of me, funny you should say that it's all in my head
  wasting away we're hitting rock bottom, and going down in flames well it's not that bad

ESO ES TODO ESPERO LES GUSTE, DISFRUTENLA
BIEKS
Related for Lets Hear It For Rock Bottom tab