Song name
# A B C D E F G H I J K L M N O P Q R S T U V W X Y Z

Offspring - End Of The Line tab

The Offspring--->

"The End Of The Line" from 'Americana'

Tabbed by Liam Jemmeson [p.l.u.c.k.01@hotmail.com]


\ = slide down
/ = slide up
pm---| = palm mute until line stops then play without pm
x = scratch strings
~ = let ring


Use distortion all the way (unless youve figured out the effects in the middle)

intro
E-----------------------------------------------------------------|
B-----------------------------------------------------------------|
G----------------------------------x9-99-9-99--6-66-6-66666-6-66\-|
D-4-444--4----4-444-4----4-444-4---x9-99-9-99--6-66-6-66666-6-66\-|
A-4-444--4----4-444-4----4-444-4---x7-77-7-77--4-44-4-44444-4-44\-|
E-2-222--2----2-222-2----2-222-2----------------------------------|
pm----|       |---|      |---|


verse 1
E-----------------------------------------------------------------|
B-----------------------------------------------------------------|
G-----------------------------------------------9-9-9-------------|
D-4-444--4-44--7-7-7--7--9\--4-444-4-44--7-7-7--9-9-9-------------|
A-4-444--4-44--5-5-5--7--9\--4-444-4-44--5-5-5--7-7-7-------------|
E-2-222--2-22---------5--7\--2-222-2-22---------------------------|
pm----|        |-----------------|       |---|

E-----------------------------------------------------------------|
B-----------------------------------------------------------------|
G----------------------------x9-99-9-99--6-66-6-66\---------------|
D-4-444--4-44--7-7-7--7--9---x9-99-9-99--6-66-6-66\---------------|
A-4-444--4-44--5-5-5--7--9---x7-77-7-77--4-44-4-44\---------------|
E-2-222--2-22---------5--7----------------------------------------|
pm----|        |---------|       

E-----------------------------------------------------------------|
B-----------------------------------------------------------------|
G-----------------------------------------------9-9-9-------------|
D-4-444--4-44--7-7-7--7--9\--4-444-4-44--7-7-7--9-9-9-------------|
A-4-444--4-44--5-5-5--7--9\--4-444-4-44--5-5-5--7-7-7-------------|
E-2-222--2-22---------5--7\--2-222-2-22---------------------------|
pm----|        |-----------------|       |---|

E-----------------------------------------------------------------|
B-----------------------------------------------------------------|
G----------------------------x9-99-9-99--6-66-6-66\---------------|
D-4-444--4-44--7-7-7--7--9---x9-99-9-99--6-66-6-66\---------------|
A-4-444--4-44--5-5-5--7--9---x7-77-7-77--4-44-4-44\---------------|
E-2-222--2-22---------5--7----------------------------------------|
pm----|        |---------|       


chorus 1
E----------------------------------------------------------------|
B----------------------------------------------------------------|
G-----------------------9-9-9-99---------------------------------|
D-4-4-4-44---7-7-7-77---9-9-9-99---9-9-9-99----------------------|
A-4-4-4-44---7-7-7-77---7-7-7-77---9-9-9-99----------------------|
E-2-2-2-22---5-5-5-55--------------7-7-7-77----------------------|

E----------------------------------------------------------------|
B----------------------------------------------------------------|
G-----------------------9-9-9-99--66-6-6-66----------------------|
D-4-4-4-44---7-7-7-77---9-9-9-99--66-6-6-66----------------------|
A-4-4-4-44---7-7-7-77---7-7-7-77--44-4-4-44----------------------|
E-2-2-2-22---5-5-5-55--------------------------------------------|


chorus 2
E----------------------------------------------------------------|
B----------------------------------------------------------------|
G-11--11--11--11-11-------------9-9-9-99-------------------------|
D-9---9---9---9--9---7-7-7-77---9-9-9-99--9-9-9-99---------------|
A-9---9---9---9--9---7-7-7-77---7-7-7-77--9-9-9-99---------------|
E--------------------5-5-5-55-------------7-7-7-77---------------|

E----------------------------------------------------------------|
B----------------------------------------------------------------|
G-11--11--11--11-11-------------9-9-9-99--6-6-6-66\--------------|
D-9---9---9---9--9---7-7-7-77---9-9-9-99--6-6-6-66\--------------|
A-9---9---9---9--9---7-7-7-77---7-7-7-77--4-4-4-44\--------------|
E--------------------5-5-5-55------------------------------------|


verse again...
E-----------------------------------------------------------------|
B-----------------------------------------------------------------|
G-----------------------------------------------9-9-9-------------|
D-4-444--4-44--7-7-7--7--9\--4-444-4-44--7-7-7--9-9-9-------------|
A-4-444--4-44--5-5-5--7--9\--4-444-4-44--5-5-5--7-7-7-------------|
E-2-222--2-22---------5--7\--2-222-2-22---------------------------|
pm----|        |-----------------|       |---|

E-----------------------------------------------------------------|
B-----------------------------------------------------------------|
G----------------------------x9-99-9-99--6-66-6-66\---------------|
D-4-444--4-44--7-7-7--7--9---x9-99-9-99--6-66-6-66\---------------|
A-4-444--4-44--5-5-5--7--9---x7-77-7-77--4-44-4-44\---------------|
E-2-222--2-22---------5--7----------------------------------------|
pm----|        |---------|       


chorus 
E----------------------------------------------------------------|
B----------------------------------------------------------------|
G-----------------------9-9-9-99---------------------------------|
D-4-4-4-44---7-7-7-77---9-9-9-99---9-9-9-99----------------------|
A-4-4-4-44---7-7-7-77---7-7-7-77---9-9-9-99----------------------|
E-2-2-2-22---5-5-5-55--------------7-7-7-77----------------------|

E----------------------------------------------------------------|
B----------------------------------------------------------------|
G-----------------------9-9-9-99--66-6-6-66----------------------|
D-4-4-4-44---7-7-7-77---9-9-9-99--66-6-6-66----------------------|
A-4-4-4-44---7-7-7-77---7-7-7-77--44-4-4-44----------------------|
E-2-2-2-22---5-5-5-55--------------------------------------------|


then
E----------------------------------------------------------------|
B----------------------------------------------------------------|
G-11--11--11--11-11-------------9-9-9-99-------------------------|
D-9---9---9---9--9---7-7-7-77---9-9-9-99--9-9-9-99---------------|
A-9---9---9---9--9---7-7-7-77---7-7-7-77--9-9-9-99---------------|
E--------------------5-5-5-55-------------7-7-7-77---------------|

E----------------------------------------------------------------|
B----------------------------------------------------------------|
G-11--11--11--11-11-------------9-9-9-99--6-6-6-666666666666666--|
D-9---9---9---9--9---7-7-7-77---9-9-9-99--6-6-6-666666666666666--|
A-9---9---9---9--9---7-7-7-77---7-7-7-77--4-4-4-444444444444444--|
E--------------------5-5-5-55------------------------------------|

E-----|     
B-----|
G-----|
D-4~--|
A-4~--|
E-2~--|       then the weird effects...


after the effects play
E----------------------------------------------------------------|
B----------------------------------------------------------------|
G-----------------------------9-999--9-99\-----------------------|
D-4-444--4-44/--7-777--7-77/--9-999--9-99\--9-999--9-99\---------|
A-4-444--4-44/--7-777--7-77/--7-777--7-77\--9-999--9-99\---------|
E-2-222--2-22/--5-555--5-55/----------------7-777--7-77\---------|
pm----|         |---|         |---|         |---|

E----------------------------------------------------------------|
B----------------------------------------------------------------|
G------------------------------9-999--9-99\---6-666--6-66--------|
D-4-444--4-44/--7-777--7-77/---9-999--9-99\---6-666--6-66--------|
A-4-444--4-44/--7-777--7-77/---7-777--7-77\---4-444--4-44--------|
E-2-222--2-22/--5-555--5-55/-------------------------------------|
pm----|         |---|          |---|          |---|


then stop pm
E----------------------------------------------------------------|
B----------------------------------------------------------------|
G-----------------------------9-999--9-99\-----------------------|
D-4-444--4-44/--7-777--7-77/--9-999--9-99\--9-999--9-99\---------|
A-4-444--4-44/--7-777--7-77/--7-777--7-77\--9-999--9-99\---------|
E-2-222--2-22/--5-555--5-55/----------------7-777--7-77\---------|


E----------------------------------------------------------------|
B----------------------------------------------------------------|
G------------------------------9-999--9-99\---6-666--6-66--------|
D-4-444--4-44/--7-777--7-77/---9-999--9-99\---6-666--6-66--------|
A-4-444--4-44/--7-777--7-77/---7-777--7-77\---4-444--4-44--------|
E-2-222--2-22/--5-555--5-55/-------------------------------------|


then do chorus 
E----------------------------------------------------------------|
B----------------------------------------------------------------|
G-11--11--11--11-11-------------9-9-9-99-------------------------|
D-9---9---9---9--9---7-7-7-77---9-9-9-99--9-9-9-99---------------|
A-9---9---9---9--9---7-7-7-77---7-7-7-77--9-9-9-99---------------|
E--------------------5-5-5-55-------------7-7-7-77---------------|

E----------------------------------------------------------------|
B----------------------------------------------------------------|
G-11--11--11--11-11-------------9-9-9-99--6-6-6-66---------------|
D-9---9---9---9--9---7-7-7-77---9-9-9-99--6-6-6-66---------------|
A-9---9---9---9--9---7-7-7-77---7-7-7-77--4-4-4-44---------------|
E--------------------5-5-5-55------------------------------------|


and finish with
E----------------------------------------------------------------|
B----------------------------------------------------------------|
G-11--11--11--11-11-------------9-9-9-99-------------------------|
D-9---9---9---9--9---7-7-7-77---9-9-9-99--9-9-9-99---------------|
A-9---9---9---9--9---7-7-7-77---7-7-7-77--9-9-9-99---------------|
E--------------------5-5-5-55-------------7-7-7-77---------------|

E----------------------------------------------------------------|
B----------------------------------------------------------------|
G-11--11--11--11-11-------------9-9-9-99--6-6-6-666666666666666--|
D-9---9---9---9--9---7-7-7-77---9-9-9-99--6-6-6-666666666666666--|
A-9---9---9---9--9---7-7-7-77---7-7-7-77--4-4-4-444444444444444--|
E--------------------5-5-5-55------------------------------------|

Finally...
E-----|
B-----|
G-----|
D-4~--|
A-4~--|
E-2~--|

...and thats it, email me for any improvements 
Tap to rate this tab
# A B C D E F G H I J K L M N O P Q R S T U V W X Y Z