Song name
# A B C D E F G H I J K L M N O P Q R S T U V W X Y Z

Offspring - Hopeless tab

Tabbed by: samr
This is a very old offspring song, they recored it under the name Manic Subsidal, but
its still the Offspring. If you can find the song online, good for you. Its kinda rare

Verse

e----------------------------------|
B----------------------------------|
G-66-77-66-9-8-7-44-77-66-44-------|
D-66-77-66-9-8-7-44-77-66-44-------| Play 2 times
A-44-55-44-7-6-5-22-55-44-22-------|
E----------------------------------|

e-------------------------------------|
B-------------------------------------|
G-66-6-44-4-66-6-44-4-66-6-9-8--------|
D-66-6-44-4-66-6-44-4-66-6-9-8--------| play 1 time
A-44-4-22-2-44-4-22-2-44-4-7-6--------|
E-------------------------------------|

Chorus

e--------------|
B--------------|
G-66-----------|
D-66-----------| Play this 3 times
A-44-7-4-------|
E----------5-4-|

e--------------------|
B--------------------|
G-66-----------------|
D-66-----------------| play this once
A-44-7-4-------------|
E----------5-4-5-4-2-|

Interlude

e----------------------------------|
B----------------------------------|
G-66-77-44-4-44--------------------|
D-66-77-44-4-44--------------------| Play this 4 times
A-44-55-22-2-22--------------------|
E----------------------------------|

I havent figured out the solo though.

Dang it.

tell me what you think
Tap to rate this tab
# A B C D E F G H I J K L M N O P Q R S T U V W X Y Z