Song name
# A B C D E F G H I J K L M N O P Q R S T U V W X Y Z

Offspring - Next To You tab

Help us improve GuitareTab! Take a short survey!
----------------------------------------------------------------------------
			     Next To You - The offspring
----------------------------------------------------------------------------
Tabbed by: Ryan Armstrong
Email:

Tuning: Standard
  
Ok this is the cover of the Police song which was a hidden track on 
their greatest hits album.

  Intro Verse
e|-----------------------------------------------------------------|
B|-----------------------------------------------------------------|
G|-7-7-----------------------------7-7-----------------------------|
D|-7-7-7-7-------------------------7-7-7-7-------------------------|
A|-5-5-7-7-2-2-2-2-2-2-2-2-2-2-2-2-5-5-7-7-2-2-2-2-2-2-2-2-2-2-2-2-|
E|-----5-5-0-0-0-0-0-0-0-0-0-0-0-0-----5-5-0-0-0-0-0-0-0-0-0-0-0-0-|
  
e|-----------------------------------------------------------------|
B|-----------------------------------------------------------------|
G|-7-7-----------------------------7-7-----------------------------|
D|-7-7-7-7-------------------------7-7-7-7-------------------------|
A|-5-5-7-7-2-2-2-2-2-2-2-2-2-2-2-2-5-5-7-7-2-2-2-2-2-2-2-2-2-2-2-2-|
E|-----5-5-0-0-0-0-0-0-0-0-0-0-0-0-----5-5-0-0-0-0-0-0-0-0-0-0-0-0-|

e|-----------------------------------------------------------------|
B|-----------------------------------------------------------------|
G|-7-7-----------------------------7-7-----------------------------|
D|-7-7-7-7-------------------------7-7-7-7-------------------------|
A|-5-5-7-7-2-2-2-2-2-2-2-2-2-2-2-2-5-5-7-7-2-2-2-2-2-2-2-2-2-2-2-2-|
E|-----5-5-0-0-0-0-0-0-0-0-0-0-0-0-----5-5-0-0-0-0-0-0-0-0-0-0-0-0-|

e|-------------------------------------------|
B|-------------------------------------------|
G|-7-7-----------------------------7-7-------|
D|-7-7-7-7-------------------------7-7-7-7-2-|
A|-5-5-7-7-2-2-2-2-2-2-2-2-2-2-2-2-5-5-7-7-2-|
E|-----5-5-0-0-0-0-0-0-0-0-0-0-0-0-----5-5-0-|
  Chorus
e|-------------------------------|
B|-------------------------------| Play x2
G|-6-6-6-6-7-7-7-7-9-9-9-9-9-9-9-|
D|-6-6-6-6-7-7-7-7-9-9-9-9-9-9-9-|
A|-4-4-4-4-5-5-5-5-7-7-7-7-7-7-7-|
E|-------------------------------|
  Verse
e|-----------------------------------------------------------------|
B|-----------------------------------------------------------------|
G|-7-7-----------------------------7-7-----------------------------|
D|-7-7-7-7-------------------------7-7-7-7-------------------------|
A|-5-5-7-7-2-2-2-2-2-2-2-2-2-2-2-2-5-5-7-7-2-2-2-2-2-2-2-2-2-2-2-2-|
E|-----5-5-0-0-0-0-0-0-0-0-0-0-0-0-----5-5-0-0-0-0-0-0-0-0-0-0-0-0-|

e|-------------------------------------------|
B|-------------------------------------------|
G|-7-7-----------------------------7-7-------|
D|-7-7-7-7-------------------------7-7-7-7-2-|
A|-5-5-7-7-2-2-2-2-2-2-2-2-2-2-2-2-5-5-7-7-2-|
E|-----5-5-0-0-0-0-0-0-0-0-0-0-0-0-----5-5-0-|
  Chorus
e|-------------------------------|
B|-------------------------------| Play x2
G|-6-6-6-6-7-7-7-7-9-9-9-9-9-9-9-|
D|-6-6-6-6-7-7-7-7-9-9-9-9-9-9-9-|
A|-4-4-4-4-5-5-5-5-7-7-7-7-7-7-7-|
E|-------------------------------|
  Continued
e|-------------------------------------------------|
B|-------------------------------------------------|
G|-7-7-7-7-7-7-7-7-9-9-9-9-9-9-9-9-7-7-7-7-7-7-7-7-|
D|-7-7-7-7-7-7-7-7-9-9-9-9-9-9-9-9-7-7-7-7-7-7-7-7-|
A|-5-5-5-5-5-5-5-5-7-7-7-7-7-7-7-7-5-5-5-5-5-5-5-5-|
E|-------------------------------------------------|
  Solo 1 Guitar 1 Bass play along
e|-------------------------------------------------|
B|-------------------------------------------------|
G|-------------------------------------------------|play
D|-----5-x-3-2-----5-x-3-2-----5-x-3-2-----5-x-3-2-|x4
A|-------------------------------------------------|
E|-3-x---------3-x--------3-x----------3-x---------|
  Continued
e|-------------------------------------------------|
B|-------------------------------------------------|
G|-------------------------------------------------|play
D|-----7-x-5-4-----7-x-5-4-----7-x-5-4-----7-x-5-4-|x4
A|-5-x---------5-x---------5-x---------5-x---------|
E|-------------------------------------------------|
  Solo 2 guitar 2
e|------------------------------------------|
B|------------------------------------------|
G|--3~~~~~-3-----3-----5------------5-7--17-|
D|------------5-3---5-3-----3-0-3v-0-3------|
A|------------------------------------------|
E|------------------------------------------|
  i think this solo is rong you might have figure it out for 
  yourself.  

  Bridge 
e|---------------------------------------------------|
B|---------------------------------------------------|
G|-7-7-----------------------------7/9-9-7/9-9-7/9-9-|
D|-7-7-7-7-------------------------7/9-9-7/9-9-7/9-9-|
A|-5-5-7-7-2-2-2-2-2-2-2-2-2-2-2-2-5/7-7-5/7-7-5/7-7-|
E|-----5-5-0-0-0-0-0-0-0-0-0-0-0-0-------------------|

e|---------------------------------------------------|
B|---------------------------------------------------|
G|-7-7-----------------------------7/9-9-7/9-9-7/9-9-|
D|-7-7-7-7-------------------------7/9-9-7/9-9-7/9-9-|
A|-5-5-7-7-2-2-2-2-2-2-2-2-2-2-2-2-5/7-7-5/7-7-5/7-7-|
E|-----5-5-0-0-0-0-0-0-0-0-0-0-0-0-------------------|

e|---------------------------------------------------|
B|---------------------------------------------------|
G|-7-7-----------------------------7/9-9-7/9-9-7/9-9-|
D|-7-7-7-7-------------------------7/9-9-7/9-9-7/9-9-|
A|-5-5-7-7-2-2-2-2-2-2-2-2-2-2-2-2-5/7-7-5/7-7-5/7-7-|
E|-----5-5-0-0-0-0-0-0-0-0-0-0-0-0-------------------|

e|---------------------------------------------------|
B|---------------------------------------------------|
G|-7-7-----------------------------7/9-9-7/9-9-7/9-9-|
D|-7-7-7-7-------------------------7/9-9-7/9-9-7/9-9-|
A|-5-5-7-7-2-2-2-2-2-2-2-2-2-2-2-2-5/7-7-5/7-7-5/7-7-|
E|-----5-5-0-0-0-0-0-0-0-0-0-0-0-0-------------------|

e|-------------------------------------|
B|-------------------------------------|
G|-7-7---------------------------------|
D|-7-7-7-7-------------------------6-6-|
A|-5-5-7-7-2-2-2-2-2-2-2-2-2-2-2-2-4-4-|
E|-----5-5-0-0-0-0-0-0-0-0-0-0-0-0-----|
  Chorus
e|-------------------------------|
B|-------------------------------| Play x4
G|-6-6-6-6-7-7-7-7-9-9-9-9-9-9-9-|
D|-6-6-6-6-7-7-7-7-9-9-9-9-9-9-9-|
A|-4-4-4-4-5-5-5-5-7-7-7-7-7-7-7-|
E|-------------------------------|
  Continued
e|-------------------------------------------------|
B|-------------------------------------------------|
G|-7-7-7-7-7-7-7-7-9-9-9-9-9-9-9-9-7-7-7-7-7-7-7-7-| Play until music fades
D|-7-7-7-7-7-7-7-7-9-9-9-9-9-9-9-9-7-7-7-7-7-7-7-7-|
A|-5-5-5-5-5-5-5-5-7-7-7-7-7-7-7-7-5-5-5-5-5-5-5-5-|
E|-------------------------------------------------|

Thats it, its realy easy so i hope you enjoy it i'll see ya later.

| /  slide up
| \  slide down
| h  hammer-on
| p  pull-off
| ~  vibrato
| +  harmonic
| x  Mute note
============================================================================
Related for Next To You tab