Song name
# A B C D E F G H I J K L M N O P Q R S T U V W X Y Z

Offspring - Kick Him When Hes Down tab

Band: The Offspring
Song: Kick him when he's down
Standard Tuning: eBGDAE

Intro (.=harmonic above the fret eg 9.= harmonic above the fret between 9 and 10)
e|------------------------------------------------------------------------|
B|------------------------------------------------------------------------|
G|-11.--11.-11.11.11.-11.11.-11.11.-11.-11.-9.--9.-9.9.9.-9.9.-9.9.-9.-9.-|
D|-11.--11.-11.11.11.-11.11.-11.11.-11.-11.-9.--9.-9.9.9.-9.9.-9.9.-9.-9.-| x1
A|-9.---9.--9.-9.-9.--9.-9.--9.-9.--9.--9.--7.--7.-7.7.7.-7.7.-7.7.-7.-7.-|
E|------------------------------------------------------------------------|

e|--------------------------------------------------------------|
B|--------------------------------------------------------------|
G|--------------------------------------------------------------|  x1
D|-11.--11.-11.11.11.-11.11.-9.9.-9.-9.-99-88-77-66-55-44-33-22-|
A|-11.--11.-11.11.11.-11.11.-9.9.-9.-9.-99-88-77-66-55-44-33-22-|
E|-9.---9.--9.-9.-9.--9.-9.--7.7.-7.-7.-77-66-55-44-33-22-11-00-|

Pre Verse (x2)
e|----------------------------------------------------------------|
B|----------------------------------------------------------------|
G|-11~-11-11-9-99------11-11--11--11-11--11--11-11--11--11-11--11-|
D|-11~-11-11-9-99-9-99-11-11--11--11-11--11--11-11--11--11-11--11-|
A|-9~~-9--9--7-77-9-99-9--9---9---9--9---9---9--9---9---9--9---9--|
E|----------------7-77--------------------------------------------|
PM                     .  .       .  .       .  .       .  .

Verse (x1)                      x4 1,3,                      2,4
e|---------------------------------|------------------------|-------------------|
B|---------------------------------|------------------------|-------------------|
G|-11--11-11-11-11--11-11-9-99-----|---------------11-11-11-|-77777777-99999999-|
D|-11--11-11-11-11--11-11-9-999-99-|---------------11-11-11-|-77777777-99999999-|
A|-9---9--9--9--9---9--9--7-779-99-|-9999999999999-9--9--9--|-55555555-77777777-|
E|----------------------------7-77-|------------------------|-------------------|
PM     .  .  .  .                    .............


Chorus (x3)
e|------------------------|
B|------------------------|
G|-11-11-11-11-777777---9-|
D|-11-11-11-11-777777-7-9-|
A|-9--9--9--9--555555-7-7-|
E|--------------------5---|

End Chorus (x1)
e|-------------------|
B|-------------------|
G|-99999999-99999999-|
D|-99999999-99999999-|
A|-77777777-77777777-|
E|-------------------|

Chorus (x3)
End Chorus (x1)
Pre Verse (x2)
Verse (x1)
Chorus (x3)
End Chorus (x1)
Chorus (x3)
End Chorus (x1)

Solo part 1 (x3)
e|-----------------------------------|
B|-----------------------------------|
G|-----------------------------------|
D|-11-11-11-11/14-14-14-14-9999\4444-|
A|-9--9--9--9-/12-12-12-12-7777\2222-|
E|-----------------------------------|

Solo part 2 (x1)
e|---------------------------------------------|
B|---------------------------------------------|
G|---------------------------------------------|
D|---------------------------------------------|
A|-7~-7/9~-9/11~-11/12~-12/14~-14/16~-16/17/19-|
E|---------------------------------------------|

Verse (x1)
Chorus (x3)
End Chorus (x1)
Chorus (x3)
End Chorus (x1)
Chorus (x3)
End Chorus (x4)

End on
e|----|
B|----|
G|-9\-|
D|-9\-|
A|-7\-|
E|----|
Tap to rate this tab
# A B C D E F G H I J K L M N O P Q R S T U V W X Y Z