Song name
# A B C D E F G H I J K L M N O P Q R S T U V W X Y Z

Offspring - Leave It Behind tab

This song is killer! It would be awsome to see it live!

Standard tuning

Intro Guitar 1 (feel free to remove the b string notes)
|---0--2-3-2-0-|
|---0--0-0-0-0-|
|--------------|
|--------------|
|--------------|
|-0------------|x4

Intro Guitar 2
|--------------|
|--------------|
|---9--9-9-9-9-|
|-2-9--9-9-9-9-|
|-2-7--7-7-7-7-|
|-0------------|x2

Verse
|-----------------------------------------------------------------|
|-----------------------------------------------------------------|
|-9-9-9-9-9-9-9-9-7-7-7-7-9-9-9-9-9-9-9-9-9-9-9-9-7-7-7-7---------|
|-9-9-9-9-9-9-9-9-7-7-7-7-9-9-9-9-9-9-9-9-9-9-9-9-7-7-7-7-9-9-9-9-|
|-7-7-7-7-7-7-7-7-5-5-5-5-7-7-7-7-7-7-7-7-7-7-7-7-5-5-5-5-9-9-9-9-|
|---------------------------------------------------------7-7-7-7-|
pm. . . . . . . . . . . . . . . . . . . . . . . . . . . . . . . .

|---------------------------------|
|---------------------------------|
|-9-9-9-9-9-9-9-9-7-7-7-7-9-9-9-9-|
|-9-9-9-9-9-9-9-9-7-7-7-7-9-9-9-9-|
|-7-7-7-7-7-7-7-7-5-5-5-5-7-7-7-7-|
|---------------------------------|
pm. . . . . . . . . . . . . . . .

Chorus
|-------------------------------------------------|
|-------------------------------------------------|
|-5-----------7---9-9-9-9-9-9-9-9-5-----------7---|
|-5---5---7---7---9-9-9-9-9-9-9-9-5---5---7---7---|
|-3---5---7---5---7-7-7-7-7-7-7-7-3---5---7---5---|
|-----3---5---------------------------3---5-------|

Pre Verse Guitar 1 
|---0--2-3-2-0-|
|---0--0-0-0-0-|
|--------------|
|--------------|
|--------------|
|-0------------|x2

Pre Verse Guitar 2
|--------------|
|--------------|
|---9--9-9-9-9-|
|-2-9--9-9-9-9-|
|-2-7--7-7-7-7-|
|-0------------|x2

Play verse 

Chorus 2
|-----------------------------------------------------------------|
|-----------------------------------------------------------------|
|-5-----------7---9-9-9-9-9-9-9-9-5-----------7---9-9-9-9-9-9-9-9-|
|-5---5---7---7---9-9-9-9-9-9-9-9-5---5---7---7---9-9-9-9-9-9-9-9-|
|-3---5---7---5---7-7-7-7-7-7-7-7-3---5---7---5---7-7-7-7-7-7-7-7-|
|-----3---5---------------------------3---5-----------------------|

Bridge
|-----------------------------------------------------------------|
|-----------------------------------------------------------------|
|-----------------7-7-7-7-7-7-7-7-9-9-9-9-9-9-9-9-5-5-5-5-5-5-5-5-|
|-5-5-5-5-5-5-5-5-7-7-7-7-7-7-7-7-9-9-9-9-9-9-9-9-5-5-5-5-5-5-5-5-|
|-5-5-5-5-5-5-5-5-5-5-5-5-5-5-5-5-7-7-7-7-7-7-7-7-3-3-3-3-3-3-3-3-|
|-3-3-3-3-3-3-3-3-------------------------------------------------|


|-----------------------------------------------------------------|
|-----------------------------------------------------------------|
|-----------------7-7-7-7-7-7-7-7-9-9-9-9-9-9-9-9-5-5-5-5-7-7-7-7-|
|-5-5-5-5-5-5-5-5-7-7-7-7-7-7-7-7-9-9-9-9-9-9-9-9-5-5-5-5-7-7-7-7-|
|-5-5-5-5-5-5-5-5-5-5-5-5-5-5-5-5-7-7-7-7-7-7-7-7-3-3-3-3-5-5-5-5-|
|-3-3-3-3-3-3-3-3-------------------------------------------------|

play intro, verse, chorus 2, Bridge, intro then bridge.

Outro Guitar 1 
|---0--2-3-2-0-|
|---0--0-0-0-0-|
|--------------|
|--------------|
|--------------|
|-0------------|x4

Outro Guitar 2
|--------------|
|--------------|
|---9--9-9-9-9-|
|-2-9--9-9-9-9-|
|-2-7--7-7-7-7-|
|-0------------|x4

end on
|---|
|---|
|-9-|
|-9-|
|-7-|
|---|
really simple song!
Tap to rate this tab
# A B C D E F G H I J K L M N O P Q R S T U V W X Y Z