Song name
# A B C D E F G H I J K L M N O P Q R S T U V W X Y Z

Offspring - Mota tab

intro-Palm mute the 3rd time the drums come in, and the forth time play normally

|--------------------------------------------------------|
|--------------------------------------------------------|
|-12-12--12-12--12-12--12-12-12-12--12--12--12-12-12-12--|
|-12-12--12-12--12-12--12-12-12-12--12--12--12-12-12-12--|
|-10-10--10-10--10-10--10-10-10-10--10--10--10-10-10-10--|
|--------------------------------------------------------|
-
pre-verse

|---------------------------------------------------------|
|---------------------------------------------------------|
|-12-12--12-12--12-12-14-15--10--8-8--8-8--8--14-15-14-10-|
|-12-12--12-12--12-12-14-15--10--8-8--8-8--8--14-15-14-10-|Repeat 2x
|-10-10--10-10--10-10-12-13--8--6-6--6-6--6--12-13-12-8---|
|---------------------------------------------------------|

verse

|----------------------------------------|
|----------------------------------------|
|-12-12--12-12--12-12-12-12-12-----------|
|-12-12--12-12--12-12-12-12-12-| Repeat--| 4x
|-10-10--10-10--10-10-10-10-10-----------|
|----------------------------------------|
 \-----Palm mute-------------------------|


pre-chorus

|---------------------------------------------------------|
|---------------------------------------------------------|
|-12-12--12-12--12-12-14-15--10--8-8--8-8--8--14-15-10----|Repeat 2x
|-12-12--12-12--12-12-14-15--10--8-8--8-8--8--14-15-10----|
|-10-10--10-10--10-10-12-13--8--6-6--6-6--6--12-13--8-----|
|---------------------------------------------------------|


chorus

|-------------------------------------------------|
|-------------------------------------------------|
|-------------3-3-3-3-3-3-------------------------|Repeat 4x
|-3-3-3-3-3-3-3-3-3-3-3-3-3-3-3-3-3-3-3-3-3-3-3-3-|
|-3-3-3-3-3-3-5-5-5-5-5-5-3-3-3-3-3-3-3-3-3-3-3-3-|
|-1-1-1-1-1-1-------------5-5-5-5-5-5-5-5-5-5-5-5-|


Pre-verse 2

|--------------------------------------------------------|
|--------------------------------------------------------|
|-12-12--12-12--12-12--12-12-12-12--12--12--12-12-12-12--|
|-12-12--12-12--12-12--12-12-12-12--12--12--12-12-12-12--|MOTA!
|-10-10--10-10--10-10--10-10-10-10--10--10--10-10-10-10--|
|--------------------------------------------------------|


|---------------------------------------------------------|
|---------------------------------------------------------|
|-12-12--12-12--12-12-14-15--10--8-8--8-8--8--14-15-14-10-|
|-12-12--12-12--12-12-14-15--10--8-8--8-8--8--14-15-14-10-|Repeat 2x
|-10-10--10-10--10-10-12-13--8--6-6--6-6--6--12-13-12-8---|
|---------------------------------------------------------|

Verse

|----------------------------------------|
|----------------------------------------|
|-12-12--12-12--12-12-12-12-12-----------|
|-12-12--12-12--12-12-12-12-12-| Repeat--| 4x
|-10-10--10-10--10-10-10-10-10-----------|
|----------------------------------------|
 \-----Palm mute-------------------------|

Pre-Chorus 2

|---------------------------------------------------------|
|---------------------------------------------------------|
|-12-12--12-12--12-12-14-15--10--8-8--8-8--8--14-15-14-10-|
|-12-12--12-12--12-12-14-15--10--8-8--8-8--8--14-15-14-10-|Repeat 2x
|-10-10--10-10--10-10-12-13--8--6-6--6-6--6--12-13-12-8---|
|---------------------------------------------------------|

chorus 2

|-------------------------------------------------|
|-------------------------------------------------|
|-------------3-3-3-3-3-3-------------------------|Repeat 3x
|-3-3-3-3-3-3-3-3-3-3-3-3-3-3-3-3-3-3-3-3-3-3-3-3-|
|-3-3-3-3-3-3-5-5-5-5-5-5-3-3-3-3-3-3-3-3-3-3-3-3-|
|-1-1-1-1-1-1-------------5-5-5-5-5-5-5-5-5-5-5-5-|

The 4th time play:

|-------------------------------------------------------|
|-------------------------------------------------------|
|-------------3-3-3-3-3-3-------------10-10-10-10-10-10-|
|-3-3-3-3-3-3-3-3-3-3-3-3-8-8-8-8-8-8-10-10-10-10-10-10-|
|-3-3-3-3-3-3-5-5-5-5-5-5-8-8-8-8-8-8--8--8--8--8--8--8-|
|-1-1-1-1-1-1-------------6-6-6-6-6-6-------------------|


"bridge" or whatever you wanna call it...

|--------------------------------------------------------|
|--------------------------------------------------------|
|-12-12--12-12--12-12--12-12-12-12--12--12--12-12-12-12--|
|-12-12--12-12--12-12--12-12-12-12--12--12--12-12-12-12--|MOTA!
|-10-10--10-10--10-10--10-10-10-10--10--10--10-10-10-10--|
|--------------------------------------------------------|

|---------------------------------------------------------|
|---------------------------------------------------------|
|-12-12--12-12--12-12-14-15--10--8-8--8-8--8--14-15-14-10-|
|-12-12--12-12--12-12-14-15--10--8-8--8-8--8--14-15-14-10-|Repeat 2x
|-10-10--10-10--10-10-12-13--8--6-6--6-6--6--12-13-12-8---|
|---------------------------------------------------------|

Chorus 3

|-------------------------------------------------|
|-------------------------------------------------|
|-------------3-3-3-3-3-3-------------------------|Repeat 2x
|-3-3-3-3-3-3-3-3-3-3-3-3-3-3-3-3-3-3-3-3-3-3-3-3-|
|-3-3-3-3-3-3-5-5-5-5-5-5-3-3-3-3-3-3-3-3-3-3-3-3-|
|-1-1-1-1-1-1-------------5-5-5-5-5-5-5-5-5-5-5-5-|

|----------------------------------------------------|
|----------------------------------------------------|
|-------------3-3-3-3-3-3----------------------------| 1x
|-3-3-3-3-3-3-3-3-3-3-3-3-3-3-3-3-3-3-3-3-3-3-3-3----|
|-3-3-3-3-3-3-5-5-5-5-5-5-3-3-3-3-3-3-3-3-3-3-3-3----|
|-1-1-1-1-1-1-------------5-5-5-5-5-5-5-5-5-5-5-5----|
\-----------------Palm mute--------------------------|

|-------------------------------------------------|
|-------------------------------------------------|
|-------------3-3-3-3-3-3-------------------------| 1x
|-3-3-3-3-3-3-3-3-3-3-3-3-3-3-3-3-3-3-3-3-3-3-3-3-|
|-3-3-3-3-3-3-5-5-5-5-5-5-3-3-3-3-3-3-3-3-3-3-3-3-|
|-1-1-1-1-1-1-------------5-5-5-5-5-5-5-5-5-5-5-5-|


Outro
|-----------------------------------------------------------------------------|
|-----------------------------------------------------------------------------|
|-------------3-3-3-3-3--12-12---12-12--12-12--12-12-12-12-12-12--12-12-12-12-|
|-3-3-3-3-3-3-3-3-3-3-3--12-12---12-12--12-12--12-12-12-12-12-12--12-12-12-12-|
|-3-3-3-3-3-3-5-5-5-5-5--10-10---10-10--10-10--10-10-10-10-10-10--10-10-10-10-|
|-1-1-1-1-1-1-----------------------------------------------------------------|


This is my first tabbing, I am positive this is 100% correct and fixes errors of the 
mota witch is extremly close but this is much more clear and better. any ?'s or comments
e-mail me@ erikandpaistecymbalsmakesgood@hotmail.com
Tap to rate this tab
# A B C D E F G H I J K L M N O P Q R S T U V W X Y Z