Song name
# A B C D E F G H I J K L M N O P Q R S T U V W X Y Z

Offspring - Nothing From Something tab

Help us improve GuitareTab! Take a short survey!
-----------------------------------------------------------------------
	        The Offspring - Nothing From Something
-----------------------------------------------------------------------
Tabbed by: Clayton Pennington
Email: offspring_punk08@hotmail.com

Tuning: Standard

Intro (Kind of a tough rhythm to tab sorry if its not exact)
e|---------------------------------------------------------------------|
B|---------------------------------------------------------------------|
G|---9-9--77-99-9-99-7-7-7-77-99-9-9--9-9--77-99-9-99-7-7-7-44-4444----|
D|---9-9--77-99-9-99-7-7-7-77-99-9-9--9-9--77-99-9-99-7-7-7-44-4444----|
A|---7-7--55-77-7-77-5-5-5-55-77-7-7--7-7--55-77-7-77-5-5-5-22-2222----|
E|-0~~~~-----------------------------0~~~~~~~~-------------------------|

e|---------------------------------------------------------------------|
B|---------------------------------------------------------------------|
G|--9-9--77-99-9-99-7-7-7-77-99-9-9--5~~~~~5554~~~4447-7---------------|
D|--9-9--77-99-9-99-7-7-7-77-99-9-9--5~~~~~5554~~~4447-7---------------|
A|--7-7--55-77-7-77-5-5-5-55-77-7-7--3~~~~~3332~~~2225-5---------------|
E|0~~~~~---------------------------------------------------------------|

Verse x3
e|---------------------------------------------------------------------|
B|---------------------------------------------------------------------|
G|-9-9-999-7-77-777---------9-99-999-9-9-999-5-55-555-7-7-777-9-99-999-|
D|-9-9-999-7-77-777-7-7-777-9-99-999-9-9-999-5-55-555-7-7-777-9-99-999-|
A|-7-7-777-5-55-555-7-7-777-7-77-777-7-7-777-3-33-333-5-5-555-7-77-777-|
E|------------------5-5-555--------------------------------------------|

Chorus x4
e|---------------------------------------------------------------------|
B|---------------------------------------------------------------------|
G|-9-9-999-11-11-11-1212-11-7-7-7--------------------------------------|
D|-9-9-999-11-11-11-1212-11-7-7-77-9-99-99-----------------------------|
A|-7-7-777-9--9--9--1010-9--5-5-57-9-99-99-----------------------------|
E|-------------------------------5-7-77-77-----------------------------|

Intro
Verse x2
Chorus x4

Bridge (I haven't quite figured out the solo and bridge part but I'm working
on it...I like to play this rhythm though during it)
e|---------------------------------------------------------------------|
B|---------------------------------------------------------------------|
G|---9-9--77-99-9-99-7-7-7-77-99-9-9--9-9--77-99-9-99-7-7-7-44-4444----|
D|---9-9--77-99-9-99-7-7-7-77-99-9-9--9-9--77-99-9-99-7-7-7-44-4444----|
A|---7-7--55-77-7-77-5-5-5-55-77-7-7--7-7--55-77-7-77-5-5-5-22-2222----|
E|-0~~~~-----------------------------0~~~~~~~~-------------------------|

e|---------------------------------------------------------------------|
B|---------------------------------------------------------------------|
G|--9-9--77-99-9-99-7-7-7-77-99-9-9--5~~~~~5554~~~4447-7---------------|
D|--9-9--77-99-9-99-7-7-7-77-99-9-9--5~~~~~5554~~~4447-7---------------|
A|--7-7--55-77-7-77-5-5-5-55-77-7-7--3~~~~~3332~~~2225-5---------------|
E|0~~~~~---------------------------------------------------------------|

Solo Rhythm x2
e|---------------------------------------------------------------------|
B|---------------------------------------------------------------------|
G|-9-9-999-7-77-777---------9-99-999-9-9-999-5-55-555-7-7-777-9-99-999-|
D|-9-9-999-7-77-777-7-7-777-9-99-999-9-9-999-5-55-555-7-7-777-9-99-999-|
A|-7-7-777-5-55-555-7-7-777-7-77-777-7-7-777-3-33-333-5-5-555-7-77-777-|
E|------------------5-5-555--------------------------------------------|

Chorus x4
e|---------------------------------------------------------------------|
B|---------------------------------------------------------------------|
G|-9-9-999-11-11-11-1212-11-7-7-7--------------------------------------|
D|-9-9-999-11-11-11-1212-11-7-7-77-9-99-99-----------------------------|
A|-7-7-777-9--9--9--1010-9--5-5-57-9-99-99-----------------------------|
E|-------------------------------5-7-77-77-----------------------------|

Ending
e|---------------------------------------------------------------------|
B|---------------------------------------------------------------------|
G|---------------------------------------------------------------------|
D|-5-5-5-5-5-5-5-5-7-7-7-7-7-7-7-7--2~~~~~~~~~~~~~~~~------------------|
A|-5-5-5-5-5-5-5-5-7-7-7-7-7-7-7-7--2~~~~~~~~~~~~~~~~------------------|
E|-3-3-3-3-3-3-3-3-5-5-5-5-5-5-5-5--0~~~~~~~~~~~~~~~~------------------|
     x x x x x x x x x x x x x x x 

| /  slide up
| \  slide down
| h  hammer-on
| p  pull-off
| ~  vibrato
| +  harmonic
| x  Palm mute
============================================================================
Related for Nothing From Something tab