Song name
# A B C D E F G H I J K L M N O P Q R S T U V W X Y Z

Offspring - The Kids Arent Alright tab

t. See http://www.olga.net/faq/ for more information.                     #
#-----------------------------------------------------------------------------#

Date: Mon, 22 Nov 1999 22:02:32 -0200
From: =?iso-8859-1?Q?Andr=E9?= Milani 
Subject: o/offspring/the_kids_arent_alright.tab

The Kids Aren't Alright - Offspring
(By Andr=E9 Milani)

Intro
E|---------------------------------|-----------------------------------|
B|---------------------------------|-----------------------------------|
G|-----6---6-----5---5-5-5-5-6-----|-----6---6-----5---5-5-5-5-6-------|
D|-8-8-8-8-8-8-8-8-8-8-8-8-8-8-8-\-|-4-4-4-4-4-4-4-4-4-4-4-4-4-4-4-/---|
A|---------------------------------|-----------------------------------|
E|---------------------------------|-----------------------------------|

E|---------------------------------|-----------------------------------|
B|---------------------------------|-----------------------------------|
G|---------------------------------|-----------------------------------|
D|-----6---6-----5---5-5-5-5-6-----|-6-8-----6-----5---5-5-5-5-6-------|
A|-6-6-6-6-6-6-6-6-6-6-6-6-6-6-6-6-|-6-6-6-6-6-6-6-6-6-6-6-6-6-6-6-/---|
E|---------------------------------|-----------------------------------|

Riff 1
E|-----------------------------|-------------------------------|
B|-----------------------------|-------------------------------|
G|-----------------------------|-------------------------------|
D|-----------------------------|-------------------------------|
A|---------3-4-----3-4-6-4-3-4-|---------3-4-----3-4-6-4-3-4---|
E|-6-8-9-2-----4-6-------------|-6-8-9-2-----4-6---------------|

Riff 2 (Dexter chords, in verse and chorus)
   A#5  F#5  C#5  G#5
E|------------------|
B|------------------|
G|-----------6------|
D|-8----4----6----6-|
A|-8----4----4----6-|
E|-6----2---------4-|

Solo
b =3D Bend
r =3D Release
br=3D Band and Release

E|--------------------6----8----9---11---13--17----------|
B|--------------------9br-11br-13br-15br-16b----16b-16---|
G|-------------------------------------------------------|
D|-------------------------------------------------------|
A|-------------------------------------------------------|
E|-6-6-8-8-9-9-11-13-------------------------------------|

E|--------------------------------------------------------------------------=
B|-14-16b-16b-16b-16b-16b-16b-16b-16b-16b-16r-16-14--14/15\14-14-11---------=
G|-------------------------------------------------15---------------11/13\11=
D|--------------------------------------------------------------------------=
A|--------------------------------------------------------------------------=
E|--------------------------------------------------------------------------=

E|-9-9-9-9-9-9---------------------------------|
B|-------------9-6-7-9--16-16-16b-16r-14-16b---|
G|---------------------------------------------|
D|---------------------------------------------|
A|---------------------------------------------|
E|---------------------------------------------|

In the last chorus, guitar solo:
E|-4-6-4-6-4-6-4-6...---|
B|----------------------|
G|----------------------|
D|----------------------|
A|----------------------|
E|----------------------|
Tap to rate this tab
 
# A B C D E F G H I J K L M N O P Q R S T U V W X Y Z