Song name
# A B C D E F G H I J K L M N O P Q R S T U V W X Y Z

Offspring - Bouree tab

-------------------------------------------------------------------------------
		THE OFFSPRING-BOUREE
-------------------------------------------------------------------------------
Tabbed by:Mat waters
Email:Slash_gibsons@hotmail.com

NOTE-Noodles plays this on the`huck it`dvd
     it`s a johann sebastion bach peace.
     Its a good song to impress your mates with.
     
Tuning:EADGBE

e|-0-2--3--2--0-----0--2-------------------------------------------|
B|---------------4--------0--2--4--5--3--1--0-------------0--------|
G|--------------------------------------------2--0----0-2---2-0----|
D|--------------------------------------------------4----------4-2-|
A|------0--0--0--2--0--0----------------------3--3--2--------------|
E|-3-2--------------------3--2--2--0--2--0--3----------------------|

e|-0-2--3--2--0-----0--2-------------------------------------------|
B|---------------4--------0--2--4--5--3--1--0----------------------|
G|--------------------------------------------2--0------0------0---|
D|----------------------------------------------------4---4---0----|
A|------0--0--0--2--0--0----------------------3--3--5--------2-----|
E|-3-2--------------------3--2--2--0--2--0--3---------------3------|

 I know theres morer to it,but thats 
  all noodles plays on the dvd.
  Any comments or mistakes,let me no.
  CHEERS.
====================================================================



Tap to rate this tab
 
# A B C D E F G H I J K L M N O P Q R S T U V W X Y Z