Song name
# A B C D E F G H I J K L M N O P Q R S T U V W X Y Z

Offspring - Youre Gonna Go Far Kid tab

Tabbed by: Mike
Email: hockey_mike2@hotmail.com
This is my first tab, email me with any questions.

E|----------------------------------------------------------------------------|
B|-----------------------------------------13--12-10-12-13-12-10-12-10-8-10---|
G|-12-10-12-14-12-10-12-12-9-12-14-12-9-12------------------------------------|
D|----------------------------------------------------------------------------|
A|----------------------------------------------------------------------------|
E|----------------------------------------------------------------------------|


E|-------------------------16-19-20---|----------------------------------------|
B|-------10-13-------13-17------------|----------------------------------------|
G|-10-10-------12-12------------------|----------------------------------------|
D|------------------------------------|----------------------------------------|
A|------------------------------------|----------------------------------------|
E|------------------------------------|----------------------------------------|
Tap to rate this tab
# A B C D E F G H I J K L M N O P Q R S T U V W X Y Z