Song name
# A B C D E F G H I J K L M N O P Q R S T U V W X Y Z

Offspring - Pretty Fly For A White Guy Acoustic tab

*Note* (Most of this was tabbed by ear, but some was just converted from electric guitar.)
*Key* (/=slide)

e|----------------------------------|
B|----------------------------------|
G|--------------4-2-----------------|
D|--4-4---2-4-4---------------------|
A|------4---------------------------|
E|----------------------------------|

e|----------------------------------|
B|----------------------------------|
G|--------------4-2-----------------|
D|--4-4---2-4-4---------------------|
A|------4---------------------------|
E|----------------------------------|

e|----------------------------------|
B|----------------------------------|
G|--------------4-2-----------------|
D|--4-4---2-4-4---------------------|
A|------4---------------------------|
E|----------------------------------|

e|-4-4--4-4--4-4--4-4--4-4--4-4--4-4-|
B|-----------------------------------|
G|-----------------------------------|
D|-----------------------------------|
A|-----------------------------------|
E|-----------------------------------|

e|--------------------------------------------------------------|
B|--------------------------------------------------------------|
G|-------5/6-5/6------5/6-5/6-2--2---2-4-4-2--------------------|
D|--4--4---------4--4--------------2---------2------------------|
A|--------------------------------------------------------------|
E|--------------------------------------------------------------|

e|--------------------------------------------------------------|
B|--------------------------------------------------------------|
G|-------5/6-5/6------5/6-5/6-2--2---2-4-4-2--------------------|
D|--4--4---------4--4--------------2---------2------------------|
A|--------------------------------------------------------------|
E|--------------------------------------------------------------|

e|--------------------------------------------------------------|
B|--------------------------------------------------------------|
G|-------5/6-5/6------5/6-5/6-2--2---2-4-4-2--------------------|
D|--4--4---------4--4--------------2---------2------------------|
A|--------------------------------------------------------------|
E|--------------------------------------------------------------|

e|----------------------------------|
B|----------------------------------|
G|--------------4-2-----------------|
D|--4-4---2-4-4---------------------|
A|------4---------------------------|
E|----------------------------------|

e|----------------------------------|
B|----------------------------------|
G|--------------4-2-----------------|
D|--4-4---2-4-4---------------------|
A|------4---------------------------|
E|----------------------------------|

e|----------------------------------|
B|----------------------------------|
G|--------------4-2-----------------|
D|--4-4---2-4-4---------------------|
A|------4---------------------------|
E|----------------------------------|

e|-4-4--4-4--4-4--4-4--4-4--4-4--4-4-|
B|-----------------------------------|
G|-----------------------------------|
D|-----------------------------------|
A|-----------------------------------|
E|-----------------------------------|

e|--------------------------------------------------------------|
B|--------------------------------------------------------------|
G|-------5/6-5/6------5/6-5/6-2--2---2-4-4-2--------------------|
D|--4--4---------4--4--------------2---------2------------------|
A|--------------------------------------------------------------|
E|--------------------------------------------------------------|

e|--------------------------------------------------------------|
B|--------------------------------------------------------------|
G|-------5/6-5/6------5/6-5/6-2--2---2-4-4-2--------------------|
D|--4--4---------4--4--------------2---------2------------------|
A|--------------------------------------------------------------|
E|--------------------------------------------------------------|

e|--------------------------------------------------------------|
B|--------------------------------------------------------------|
G|-------5/6-5/6------5/6-5/6-2--2---2-4-4-2--------------------|
D|--4--4---------4--4--------------2---------2------------------|
A|--------------------------------------------------------------|
E|--------------------------------------------------------------|

e|------------------------------------------------------|
B|------------------------------------------------------|
G|--------------4-2-----------4-2-----------------------|
D|-------------------4----------------------------------|
A|---2--2--2--2----------2--2---------------------------|
E|--0--0--0--0----------0--0----------------------------|

e|----------------------------------|
B|----------------------------------|
G|--------------4-2-----------------|
D|--4-4---2-4-4---------------------|
A|------4---------------------------|
E|----------------------------------|

e|----------------------------------|
B|----------------------------------|
G|--------------4-2-----------------|
D|--4-4---2-4-4---------------------|
A|------4---------------------------|
E|----------------------------------|

e|----------------------------------|
B|----------------------------------|
G|--------------4-2-----------------|
D|--4-4---2-4-4---------------------|
A|------4---------------------------|
E|----------------------------------|

e|-4-4--4-4--4-4--4-4--4-4--4-4--4-4-|
B|-----------------------------------|
G|-----------------------------------|
D|-----------------------------------|
A|-----------------------------------|
E|-----------------------------------|

e|------------------------------------------------------|
B|------------------------------------------------------|
G|------------------------------------------------------|
D|--5--5---5-7-7-5------432-02--------------------------|
A|-------5---------5--22---2--2-------------------------|
E|------------------------------------------------------|
Tap to rate this tab
 
# A B C D E F G H I J K L M N O P Q R S T U V W X Y Z